Cifra Club

Billionaire

Travie McCoy

Cifrado: Fingerstyle (guitarra y guitarra eléctrica)
tono: Am
E|--00003/5-0-------|
B|------------------|
G|----------------0-|
D|------------------|
A|-3-----------3----|
E|------------------|
      parte 2
E|-0----------------|
B|-0----3-1--0------|
G|-1----------------|
D|----2-------------|
A|------------------|
E|-0---------0------|
      parte 3
E|---------0---------|
B|-------1-----3-1---|
G|-2-2-2-----------2-|
D|-3--------3--------|
A|-------------------|
E|-------------------|
      parte 4
E|------------------|
B|-3-------------0--|
G|---------0--------|
D|------0-----0-----|
A|------------------|
E|-3----------------|
      refrão
E|-5555--3--5--0----|
B|------------------|
G|------------------|
D|-3----------------|
A|------------------|
E|--------3---------|
      refrão pt2
E|-----------------0-|
B|------1--------0---|
G|----0---0----1-----|
D|-------------------|
A|-3-----------------|
E|------------0------|
      Refrão pt3
E|-5555--3--5--0----|
B|------------------|
G|------------------|
D|-3----------------|
A|------------------|
E|--------3---------|
      refrão pt4
E|-----------------0-|
B|------1--------0---|
G|----0---0----1-----|
D|-------------------|
A|3------------------|
E|------------0------|
      refrão pt5
E|-------5-5-3-3-5-7---|
B|---------------------|
G|-----5---------------|
D|-3-------------------|
A|---------------------|
E|------------3--5-7---|
      refrão pt6
E|-8--7--5--3----------|
B|---------------------|
G|---------------------|
D|---------------------|
A|---------------------|
E|-8--7--5--3----------|
      refrão pt7
E|-1-----5-5-5-5-------|
B|----1----------------|
G|---------------------|
D|-3-----3-------------|
A|---------------------|
E|---------------------|
      refrão pt8
E|-4-----0-0-8-7-5-3-5-|
B|-5-------------------|
G|---------------------|
D|---------------------|
A|---------------------|
E|-0---0------0--------|
      refrão pt9
E|-----0------------0--|
B|---------------------|
G|-----------2---------|
D|---------------------|
A|-0-0----0--0--0----0-|

00:00 / 00:00
Otros videos de esta canción
Repetir
Otros videos de esta canción
Composición de Ari Levine / Bruno Mars / P. Lawrence / Travie McCoy
Colaboración y revisión:
  • Arilson
7 exhibiciones
  • Simplificar cifrado
    • ½ Tono
    • Am
    • Bbm
    • Bm
    • Cm
    • C#m
    • Dm
    • Ebm
    • Em
    • Fm
    • F#m
    • Gm
    • G#m
  • Agregar a la lista
    00:00 / 00:00
    OK