Cifra Club

Billionaire

Travie McCoy

Cifrado: Versão 5 (guitarra y guitarra eléctrica)
tono: F#m
E|--------0--2---------------------------------------------------------
B|--2(5x)--------2---2---0--------------------2---0-------0------------
G|-------------------------2---1---------2--------2--------------------(2x)
D|-------------------------------4(3x)------------4--------------------
A|---------------------------------------------------------------------
E|---------------------------------------------------------------------

E|--0--2---2---2---2-----------2---------------------------------------
B|-----3---3---3---3-----------2---------------------------------------
G|-----2---2---2---2---1---1---2---------------------------------------
D|-----0---0---0---0---2---2---2---4-----------------------------------
A|---------------------2---2---2---4-----------------------------------
E|-----------------------------2---------------------------------------

E|-------2---2---2---2------------2------------------------------------
B|-------3---3---3---3------------2------------------------------------
G|---2---2---2---2---2---1---1----2------------------------------------
D|-------0---0---0---0---2---2----2---4--------------------------------
A|-----------------------2---2----2---4--------------------------------
E|--------------------------------2------------------------------------

(repete tudo)
00:00 / 00:00
Otros videos de esta canción
Repetir
Otros videos de esta canción
Composición de Ari Levine / Bruno Mars / P. Lawrence / Travie McCoy
Colaboración y revisión:
  • hiago silva
13 exhibiciones
  • Simplificar cifrado
    • ½ Tono
    • Am
    • Bbm
    • Bm
    • Cm
    • C#m
    • Dm
    • Ebm
    • Em
    • Fm
    • F#m
    • Gm
    • G#m
  • Agregar a la lista
    00:00 / 00:00
    OK