Cifra Club

Billionaire

Travie McCoy

Tab de bajo: Principal
(verso)
G|--------------------------------------------------------------------------------
D|-------------------------6---------6----------4--------4------------------------
A|------7---------7---4-44---4--44-4---4------4--------4----------7-------7h9p7---
E|-5-55---5--55-5---5--------------------2-22-----22-2-----0-00-7----00-7-------9-

(refrão)
G|---------------------------|-3|
D|---------------------------|-3|
A|--------------4---------4--|-3|
E|-10-12--2-2-2---2-2-2-2----|-3|

G|----------------------------------------------------------------------
D|---------------------------------7----------7---------6------------6--
A|----------------12-11-9-7--5-5-5---5--5-5-5---5-4-4-4---4--4-4-4-4----
E|-10-12-12h14---------------------------------------------------------

"...wooaaaahhhh, for when I'm a Billionaire..."
G|-------------------------------------------------|
D|-------4--4-2------------------------------------|
A|-----4--------4-2~-----------9----------7h9p7----|
E|-2-2-----------------7-7-7-7---7--7-7-7-------9--|

(verso 2)
G|----------------------------------------------------------------------------
D|--------------------------------------4---------4---------------------------
A|------------------------------------4---------4-----------7--------7h9p7----
E|-5~----------------------12/--2-2-2-----2-2-2-----0-0-0-7----0-0-7-------9--

(interlúdio)
G|-----------------------------------------------------------
D|-----------------------------------------------------------
A|-------------------4-4-----4-4---4-------4-----------------
E|-0-5-5---0-5-5---5-------5---------2-2-----2-2-0-0-0-0-0~--

(final)
G|----------------
D|----------------
A|------(4)16~----
E|-5~-------------
00:00 / 00:00
Otros videos de esta canción
Repetir
Otros videos de esta canción
Composición de Ari Levine / Bruno Mars / P. Lawrence / Travie McCoy
Colaboración y revisión:
  • Raimundo Chaves
65 exhibiciones
00:00 / 00:00
OK