Cifra Club

Side

Travis

Cifrado: Principal (guitarra y guitarra eléctrica)
Selo Cifra Club: esta cifra foi revisada para atender aos critérios oficiais da nossa Equipe de Qualidade.
tono: Ab (forma dos acordes no tom de F) Capotraste na 3ª casa
[Intro] Em9  Em  Em7 
        Em  Em7  Em
 
E|------2-----------------------------------|
B|--------5--3-5----------------------------|
G|--4-4-------------------------------------|
D|------------------------------------------|
A|------------------------------------------|
E|------------------------------------------|

Em                                      C
Well I believe there's someone watching over you
        D                               Em9  Em  Em7  Em  Em7  Em
They're watching every single thing you say
    Em                                    C
And when you die they'll set you down and take you through
       D
You'll realise one day

           G
That the grass is always greener on the other side
    D/F#
The neighbour's got a new car that you wanna drive
         Em                                   C
And when time is running out you wanna stay alive
   D
We all live under the same sky
   D
We all will live, we all will die
      D
There is no wrong, there is no right
    D                     Em
The circle only has one side

( Em9  Em  Em7 )
( Em  Em7  Em )
( Em9  Em  Em7 )
( Em  Em7  Em )
( Em9  Em  Em7 )
( Em  Em7  Em )
( Em9  Em  Em7 )
( Em  Em7  Em )

   Em                                 C
We all try hard to live our lives in harmony
     D                           (Em9  Em  Em7  Em  Em7  Em)
For fear of falling swiftly overboard
    Em                         C
But life is both a major and a minor key
     D
Just open up the chord

        G
But the grass is always greener on the other side
    D/F#
The neighbour's got a new car that you wanna drive
         Em                                    C
And when time is running out you wanna stay alive
   D
We all live under the same sky
   D
We all will live, we all will die
      D
There is no wrong, there is no right
    D                     Em
The circle only has one side

( Em9  Em  Em7 )
( Em  Em7  Em )
( Em9  Em  Em7 )
( Em  Em7  Em )
( Em9  Em  Em7 )
( Em  Em7  Em )
( Em9  Em  Em7 )
( Em  Em7  Em )

  Em             C      D
E|--7-5-------------------------------------|
B|------8-7-5-------------------------------|
G|------------5~----------------------------|
D|------------------------------------------|
A|------------------------------------------|
E|------------------------------------------|

   D
E|------------------------------------------|
B|------------------------------------------|
G|--4-4-4-4-4-4...--------------------------|
D|------------------------------------------|
A|------------------------------------------|
E|------------------------------------------|

G
But the grass is always greener on the other side
    D/F#
The neighbour's got a new car that you wanna drive
         Em                                    C
And when time is running out you wanna stay alive
   D
We all live under the same sky
   D
We all will live, we all will die
      D
There is no wrong, there is no right

G
But the grass is always greener on the other side
    D/F#
The neighbour's got a new car that you wanna drive
         Em                                    C
And when time is running out you wanna stay alive
   D
We all live under the same sky
   D
We all will live, we all will die
      D
There is no wrong, there is no right
    D                     Em
The circle only has one side

( Em9  Em  Em7 )
( Em  Em7  Em )
( Em9  Em  Em7 )
( Em  Em7  Em )
( Em9  Em  Em7 )
( Em  Em7  Em )
( Em9  Em  Em7 )
( Em  Em7  Em )
Otros videos de esta canción
    8.914 exhibiciones
      • ½ Tono
      • A
      • Bb
      • B
      • C
      • Db
      • D
      • Eb
      • E
      • F
      • F#
      • G
      • Ab
    • Agregar a la lista

    Afinação da cifra

    Afinador online

      Ops (: Contenido disponible solo en portugués.
      OK