Enviar cifraEntrar

Tua Graça Me Basta

Trazendo a Arca

Acordes: Principal
reproducciones 53
Tono: E
Intro: C#m  F#m  A9  B9  C#m
       C#m  F#m  A9  B9  E

E                               A9
 Eu não preciso ser reconhecido por ninguém
E                                   A9
 A minha Glória é fazer com que conheçam a Ti
C#m      B9    A9                        F#m           B9
 E que diminua eu pra que Tu cresças senhor mais e mais

E                                         A9
 E como os serafins que encobrem o rosto ante a Ti
E                                   A9
 Escondo o rosto para que vejam Tua face em mim
C#m    B9        A9                      F#m           B9
 e que diminua eu pra que Tu cresças senhor mais e mais

               A9                  F#m
No santo dos santos a fumaça me esconde
                 C#m        B9            A9         F#m
Só teus olhos me veem    debaixo de Tuas asas é meu abrigo
             C#m               B9 A9            B9                 E
Meu lugar secreto só Tua graça me basta e Tua presença é o meu prazer

E                               A9
 Eu não preciso ser reconhecido por ninguém
E                                   A9
 A minha Glória é fazer com que conheçam a Ti
C#m      B9    A9                        F#m           B
 E que diminua eu pra que Tu cresças senhor mais e mais

E                                         A9
 E como os serafins que encobrem o rosto ante a Ti
E                                    A9
 Escondo o rosto para que vejam Tua face em mim
C#m      B9    A9                        F#m           B
 e que diminua eu pra que Tu cresças senhor mais e mais

               A9                 F#m
No santo dos santos a fumaça me esconde
                 C#m       B9             A9         F#m
Só teus olhos me veem    debaixo de Tuas asas é meu abrigo
             C#m               B9 A9             B9                E
Meu lugar secreto só Tua graça me basta e Tua presença é o meu prazer
               A9                 F#m
No santo dos santos a fumaça me esconde
                 C#m        B9            A9         F#m
Só teus olhos me veem    debaixo de Tuas asas é meu abrigo
             C#m               B9 A9             B9                E
Meu lugar secreto só Tua graça me basta e Tua presença é o meu prazer

Solo E   A9   F#m  C#m   B9  A9   F#m
     B9  C#m  A9  E  F#m

       B9  C#m  A9  E  F#m  B9
E|---------------------------------------------------------------|
B|---------------------------------------------------------------|
G|--6/9-8--------------------------------------------------------|
D|---------9-9-11-9h11-9/11-9-6-6-7-6h7-7-9-11-------------------|
A|-------------------------------------------------------14\11---|
E|---------------------------------------------------------------|


E|-------------------------------------------14/16-17-16b17-----------------------|
B|--16b17b16-12-12-14-12h14-12/14-16-17-------------------------------------------|
G|--------------------------------------------------------------------------------|
D|---------------------------------------------------------------9-11-6-7-2-4-4---|
A|---------------------------------------------------------------9-11-6-7-2-4-4---|
E|---------------------------------------------------------------7-9--4-5-0-2-2---|


E|----------------------------------------------------------|
B|----------------------------------------------------------|
G|----------9-11-11-11-9--------9---------------------------|
D|--9/11-------------------11-9----11-9---------------------|
A|------------------------------------------11-9------------|
E|-------------------------------------------------12-9-7---|


E|---------------------------12p11-12p11-----11-------------------------------------|
B|-------------------17b19-----------------12-----12--------------------------------|
G|-----------------------------------------------------11-9-8-9-8---8---------------|
D|-9-11--6-7-2-4-4-----------------------------------------------------9--9-9/11----|
A|-9-11--6-7-2-4-4------------------------------------------------------------------|
E|-7-9---4-5-0-2-2------------------------------------------------------------------|



                 A9               F#m
No santo dos santos a fumaça me esconde
                 C#m       B9             A9         F#m
Só teus olhos me veem    debaixo de Tuas asas é meu abrigo
             C#m               B9 A9             B9                E
Meu lugar secreto só Tua graça me basta e Tua presença é o meu prazer
        E             A9
Tua presença, Tua presença é o meu prazer
        E            A9
Tua presença, Tua presença é o meu prazer
         C#m         B9
Tua presença, Tua presença é o meu prazer
       A9            B9
Tua Presença, Tua presença é o meu prazer

                 A9                F#m
No santo dos santos a fumaça me esconde
                  C#m      B9             A9         F#m
Só teus olhos me veem    debaixo de Tuas asas é meu abrigo
              C#m              B9 A9             B9                E
Meu lugar secreto só Tua graça me basta e Tua presença é o meu prazer
             B9 A9             B9                E
Só Tua graça me basta e Tua presença é o meu prazer
  • 1
  • 2
  • 3
  • 4
  • 5
  • 6
  • 7
  • 8
  • 9
  • 10
  • 11
  • 12
    Acordes para:
      Colaboración y revision:

      0 comentarios

        mostrar mas comentarios

        ¿Conseguiste tocar?

        4tocaron0aún no

        ¡Grave un vídeo tocando Tua Graça Me Basta y envie para nosotros!

        00:00 / 00:00
        outros vídeos desta música
        repetirqualidadeautomática
        • automática
        Outro vídeos desta música
          00:00 / 00:00
          automática
          • automática
          1 versión de Partiturasformatodownloadscontribución
          cerrarplay/pause subir/bajar velocidad
            acordes
            cerrar
            OK
            Feedback