Cifra Club

Os Peixinhos

Tribalistas

Cifrado: Versão 2 (guitarra y guitarra eléctrica)
tono: Bb (con acordes en la forma de C) Afinación: D G C F A D
[Intro]  F Fm C C7 F Fm

   F7M                      C    C7     F7M
D|-0----------0------------0--0---------0-----------|
A|-1-0-1-0-1--1-0-1-0-1----1--1--1--1---1-0-1-0-1---|
F|-2--------2-2--------2---0-0---3--3---2--------2--| 
C|-3----------3------------------2-2----3-----------|
G|-------------------------3-----3------------------|
D|--------------------------------------------------|

[Primeira Parte]

    C          G/B   Am           Dm            G
D|-0---0-0-0---3----0----0-0-0-0----1--1-1-1-1---3--3-3-3-3-3-3|
A|-1---1-1-1---3----1----1-1-1-1----3--3-3-3-3---3--3-3-3-3-3-3|
F|-0--0-0-0----0----2---2-2-2--2----2-2-2-2-2----0-0-0-0-0-0-0-|
C|----------------------------------0--------------------------|
G|-3-----------2----0----------0-----------------3-------------|
D|-------------------------------------------------------------|

C             G/B
Os peixinhos são  
  Am
Flores sem o chão
 Dm
Nadam, boiam, fazem bolhas
G
E bolinhas de sabão
 C           G/B
Como lindos são
 Am
Coloridos tão
Dm
Espirrando gotas
      G
Como notas na canção

[Segunda Parte]

   Am              D                G
D|-0---0---0---0----2---2---2---2----------------------|
A|-1---1---1---1----3---3---3---3----------------------|
F|-2-2-2-2-2-2-2----2-2-2-2-2-2-2----------------------|
C|------------------0---0---0---0----------------------|
G|-0---0---0---0---------------------------------------|
D|-----------------------------------------------------|

Am                           D
Nas vitrines máscaras de aquários
Dos mergulhadores
 Am                           D
Furtam do arco-íris tantas cores
Am
Ultravioleta, infravermelho
      D
Degradée e fúcsia
 Am                       G
Todas as modulações do espectro

C             G/B
Os peixinhos são
  Am
Flores sem o chão
 Dm
Nadam, boiam, fazem bolhas
G
E bolinhas de sabão
 C           G/B
Como lindos são
 Am
Coloridos tão
Dm
Espirrando gotas
      G
Como notas na canção

 Am                      D
Nas escamas brilha espelhada
Toda a luz do sol
 Am                             D
Verde, azul, vermelho, ouro e prata
 Am
Segue junto com o seu cardume
  D
Pra enganar o anzol
Am                   G
Aquarela colorindo a água

( C G/B Am Dm G )
( C G/B Am Dm G )

Am                           D
Nas vitrines máscaras de aquários
Dos mergulhadores
 Am                           D
Furtam do arco-íris tantas cores
Am
Ultravioleta, infravermelho
      D
Degradée e fúcsia
 Am                       G
Todas as modulações do espectro

C             G/B
Os peixinhos são
  Am
Flores sem o chão
 Dm
Nadam, boiam, fazem bolhas
G
E bolinhas de sabão
 C           G/B
Como lindos são
 Am
Coloridos tão
Dm
Espirrando gotas
      G
Como notas na canção

Am                      D
Nas escamas brilha espelhada
Toda a luz do sol
 Am                             D
Verde, azul, vermelho, ouro e prata
 Am
Segue junto com o seu cardume
  D
Pra enganar o anzol
Am                   G
Aquarela colorindo a água

[Terceira Parte]
  
   C
D|-0---0-0-0-0-0-0-0-0-0-0-0-0-0-0-0-0-0-0-0---|
A|-1---1-1-1-1-1-1-1-1-1-1-1-1-1-1-1-1-1-1-1---|
F|-0--0-0-0-0-0-0-0-0-0-0-0-0-0-0-0-0-0-0-0----|
C|---------------------------------------------|
G|-3-------------------------------------------|
D|---------------------------------------------|

   F7M                        C
D|-0--0-0-0-0-0-0-0-0-0--0------0-|
A|-1--1-1-1-1-1-1-1-1-1--1-----1--|
F|-2-2-2-2-2-2-2-2-2-2---2----0---| 
C|-3---------------------3--------|
G|---------------------------3----|
D|--------------------------------|

C
Os peixinhos são
C
Os peixinhos são
F            Fm
Os peixinhos são

( C )
00:00 / 00:00
Otros videos de esta canción
Repetir
Otros videos de esta canción
Composición de Arnaldo Antunes / Carlinhos Brown / Carminho / Marisa Monte
Colaboración y revisión:
  • Ana Pratti
7 exhibiciones
    • ½ Tono
    • A
    • Bb
    • B
    • C
    • Db
    • D
    • Eb
    • E
    • F
    • F#
    • G
    • Ab
  • Agregar a la lista
    00:00 / 00:00
    OK