Cifra Club

Não Basta ser Rasta

Tribo de Jah

Cifrado: Principal (guitarra y guitarra eléctrica)
tono: G
intro(G Em Am D)



E||-------15------------------------------------------------------------------------------|---|
B||--15---------12--10--8-10---12-10--8-10------------------------------8~--------|---|
G||------------------------------------------------------------7~---7-7/9---------------|---|
D||---------------------------------------------------7-7/9------------------------------|---|
A||---------------------------------------------------------------------------------------|---|
E||---------------------------------------------------------------------------------------|---|


E||--15--------------------------------------------------------10~---10-10--12~---12--17-15~--|---|
B||-----15----12--10--8-10---12-10--8-10---10-10/12------------------------------------------|---|
G||-----------------------------------------------------------------------------------------------------|---|
D||-----------------------------------------------------------------------------------------------------|---|
A||-----------------------------------------------------------------------------------------------------|---|
E||------------------------------------------------------------------------------------------------------|---|


G                Em
A tribo tá na jamaica, 
Am         D         G
Culture está no Maranhão,
             Em           Am
A tribo se aquece pro Sunsplash
            D                G
E deixa sua marca na meca do som.
        Em               Am
Eric e Stanley em São Luiz,
           D                  G
Grande performace do reggae raiz,
           Em            Am
Wailers e outros vem novamente,
         D            G
Culture segue para Paris,
          Em           Am
O reggae cruza os continentes
            D             G
Miami é a esquina da conexão,
         Em                Am
Estados Unidos, Canadá, Oriente,
          D                G
Afríca, Europa, Brasil e Japão.

     Em     Am
O reggae voa pelo mundo
 D        G
Nas asas do avião, 
      Em
O reggae viaja
Am       D          G
Subindo ao céu, rolando no chão.
      Em      Am
Reggae keep flying,
           D             G
On the wings of the airlines, going around.
      Em       Am
Reggae keep flying,
       D               G       G7
Touching the sky, rilling on the ground.

C        G
Solidão na estrada,
            C
Amor perdido em vagas rotas, escalas, 
      G
Remota destinação,
 C           G         Em
Há ainda uma longa jornada que se seguir,
Am             D
Há que se cumprir a missão.
G          Em
A tribo roda jamaica,
Am      D                G
E Cruza a ilha em toda a sua extensão,
   Em         Am        D        G
Muitas pedras na  bagagem, Segue viajem pro Maranhão.
       Em         Am
Entra nas entranhas do nordeste,
       D           G
Rasta a caatinga seca do sertão,
      Em      Am
Levando mensagem pelo agreste,
       D        G
Lembra as passadas de Lampeão.
       Em         Am
O reggae e apenas entretenimento
       D          G
Mas pode libertar mentes e almas,
    Em          Am
Dança e música com sentimento,
      D            G
Rolando sem ódio, rolando sem traumas.
        Em      Am
Naõ basta ser rasta, não,
         D          G
É preciso ter puro o seu coração,
        Em      Am
Não basta ser rasta, não,
      D              G
Pra obter graça é preciso o perdão.
        Em     Am
Não basta ser rasta,
         D           G
É preciso esta certo da convicção,
        Em      Am
Não basta ser rasta, não,
         D          G
É preciso ser justo em sua razão. 

      Em      Am
Reggae keep flying,
             D            G
On the wings of the airlines, going around.
        Em     Am
Reggae keep flying,
       D               G
Touching the sky, rilling on the ground.

(G Em  Am  D)
Yo no soy rastafari, hombre,
Apenas me gusta la musica reggae.
Soy un rapaz latino- americano,
Y creo que hay solamente un Dios soberano, Yo no soy rasta,
Pero soy ser hijo de Dios, entiende?
Composición de Fauzi Beydoun
303 vistas
    • ½ Tono
    • A
    • Bb
    • B
    • C
    • Db
    • D
    • Eb
    • E
    • F
    • F#
    • G
    • Ab
  • Agregar a la lista

    0 comentarios

    Ver todos los comentarios

    ¿Lograste tocar?

    6 Tocaron 0 Aún no

    ¡Graba un video tocando Não Basta ser Rasta y envíanoslo!

    00:00 / 00:00
    Outros vídeos desta música
    Repetir Calidad Automático
    Outros vídeos desta música
    00:00 / 00:00
    Automático
    OK