Cifra Club

Besame Mucho

Los Panchos

Cifrado: Versão 2 (guitarra y guitarra eléctrica)
tono: Em

INTRODUCCION
       Am           Em          Am             Em      Am             Em
E|-----12-15-14-12-14-15-12------12-15-14-12-14-15------12-15-14-12-14-15-|
B|---13---13-13-12-13-13-12----13---13-13-12-13-13----13---13-13-12-13-13-|
G|-14------------------------14---------------------14--------------------|

A        C  D  Db C   Am         Em        B7       Em
E|---------16-17-17-17-15-14-13-12---8-12-10--8-7-10--8-7-5--8-7-5-3-|
B|-17-19-20---19-19-19-17-15-14-13--10-13-12-10-8-12-10-8-7-10-8-7-5-|
G|-------------------------------------------------------------------|

E|---7-8----7-8----|
B|-----------------|
G|--------9------9-|
D|-------9------9--|

Em               Edin7    Am
  bésame,            bésame mucho,
E|--------------10-9----------------------5-7-5-8-|
B|-----------12--------------------------5------5-|
G|---------12-------------------------5-7---------|
D|-------14------------------------7-9------------|
A|--------------------------------7---------------|
E|-------------------------------8----------------|

        Am7        Am       B7     Em
como si fuera esta noche la última vez

                          Em               E7      Am
                     Bésame,      bésame mucho,
e|-12-14-15-14-12-14-12-7---------7--8-10-----------------------7---8-|
n|-12-13-13-13-12-13-12-8---------8-10-12---------------------10---10-|
G|-12-14-14-14-12-14-12-9------------------------------------9--------|
D|-------------------------------------------------------9-10---------|

Em                 C        B        Em
que tengo miedo perderte perderte después
E|------------------------------------------------------------------------|
B|-------------------------9---------8-------------12-13------------------|
G|------------------------8---------9--------------------12-11---11-12-13-|
D|----------------------10---------9---------------------------14---------|
A|---------------------8----------7---------------------------------------|

Am             Em                 B7              Em
Quiero tenerte muy cerca,  mirarme en tus ojos y estar junto a tí
E|-----12-14-12------------12-14-12-------------------11-14-11--|
B|---13---13-13----------12---12-12-----------------10---10-10--|
G|-14------------------12-------------------------11------------|

E|-12-15-14-12----------|
B|------------12--------|
G|--------------12-11---|
D|-------------------14-|


Am                    Em                  B7     C               B
Piensa que tal vez  mañana estaré muy     lejos, muy lejos  de  aquí.

E|-----12-14-12-14-12------12-14-12-14-12------------------7-8-7--7-|
B|---13---13-13-13-13----12---12-12-12-12------8--------9--------7--|
G|-14------------------12---------------------9-------10------------|
D|------------------------------------------10------11--------------|
A|----------------------------------------10------11----------------|
E|-------------------------------------------------------7----------|

  Em             Am
  bésame, bésame mucho,
E|------------------------------5-7-5-8-|
B|-----------------------------5------5-|
G|-9-8-7--------------------5-7---------|
D|----------------------7-9-------------|
A|---------------------7----------------|
E|--------------------8-----------------|

        Am7        Am       B7     Em
como si fuera esta noche la última vez

                     Em         E7     Am
                     Bésame,    bésame mucho,
E|-12-14-15-14-12-14-12-7-------7--8-10---------------------8-7--8-10-12-|
B|-12-13-13-13-12-13-12-8-------8-10-12--------------------10-9-10-12-13-|
G|-12-14-14-14-12-14-12-9-------------------------------9----------------|
D|--------------------------------------------------9-10-----------------|

Em                 C         B        Em
que tengo miedo perderte, perderte después
E|-------------------------------------7----------|
B|-------------------------------------8----------|
G|----------------------9-------8------9----11-12-|
D|--------------------10-------9-------9--14------|
A|------------------10--------9--------7----------|
E|-----------------8---------7--------------------|

D PETIR INTRODUCCION

Am                 Em
Quiero tenerte muy cerca,
               B7                    Em
mirarme en tus ojos, y estar junto a tí
Am                  Em
Piensa que talvez mañana,
           B      B7
estaré muy lejos, muy lejos de aquí.

Em             Am
besame, besame mucho,
        Am7        Am       B7     Em
como si fuera esta noche la última vez
Em     E7       Am
Besame,  besame mucho,
Em                 B        B7       Em
que tengo miedo perderte, perderte después
00:00 / 00:00
Otros videos de esta canción
Repetir
Otros videos de esta canción
Composición de Consuelo Velázquez / Sunny Skylar
159 exhibiciones
    • ½ Tono
    • Am
    • Bbm
    • Bm
    • Cm
    • C#m
    • Dm
    • Ebm
    • Em
    • Fm
    • F#m
    • Gm
    • G#m
  • Agregar a la lista
    00:00 / 00:00
    OK