Cifra Club

Sin Tí

Los Panchos

Cifrado: Principal (guitarra y guitarra eléctrica)
tono: D
__      RIFF 1
                                          Em 
E|---------------10--12--10--12--10------|
 ) 2|--7--8--9--10----------------------12--
G|---------------------------------------|
D|---------------------------------------|
 ) 5|---------------------------------------
E|---------------------------------------|
__/


                     A  7
__      RIFF 2
  \n   1|---------------------------------------
 ) 2|--0--7--0------------------------------
G|-----------8--7--6---------------------|
D|---------------------------------------|
 ) 5|---------------------------------------
E|---------------------------------------|
__/



__      RIFF 3
  \n   1|--9--10--9--10--11--12--10--12--10--9--
 ) 2|---------------------------------------
G|---------------------------------------|
D|---------------------------------------|
 ) 5|---------------------------------------
E|---------------------------------------|
__/


        D 
_       RIFF 4
  \n   1|--10--12--10--12--10--12--10--12--10--12--10--0-----0--10--0
 ) 2|-------------------------------------------------7----------
G|------------------------------------------------------------|
D|------------------------------------------------------------|
 ) 5|------------------------------------------------------------
E|---------------------------------------|---------------------
__/


        F#m 
__      RIFF 5
  \n   1|--9--10--9--10--9--10--9--10--9--10--9--0-----0--9--0-------
 ) 2|-------------------------------------------7----------------
G|------------------------------------------------------------|
D|------------------------------------------------------------|
 ) 5|------------------------------------------------------------
E|---------------------------------------|---------------------
__/


        Em                                                   A  7
__      RIFF 6
  \n   1|--7--9--7--9--7--9--7--9--7--9--7-----------7-----7-----0
 ) 2|-----------------------------------8-----8-----8-----8---
G|--------------------------------------9------------------|
D|---------------------------------------------------------|
 ) 5|---------------------------------------------------------
E|---------------------------------------|------------------
__/


      D 
__      RIFF 7 (ESTE ACORDE SE TOCA DE 11 A 9 DE UN G  O JALÓN)
  \n   1|--9--------------------------------------
 ) 2|--10-------------------------------------
G|--10-------------------------------------|
D|--11-------------------------------------|
 ) 5|-----------------------------------------
E|---------------------------------------|--
__/



__      RIFF 8
  \n   1|--12--10--9--10------------------------
 ) 2|---------------------------------------
G|---------------------------------------|
D|---------------------------------------|
 ) 5|---------------------------------------
E|---------------------------------------|
__/
00:00 / 00:00
Otros videos de esta canción
Repetir
Otros videos de esta canción
Composición de Pepe Guízar
1.103 exhibiciones
    • ½ Tono
    • A
    • Bb
    • B
    • C
    • Db
    • D
    • Eb
    • E
    • F
    • F#
    • G
    • Ab
  • Agregar a la lista
    00:00 / 00:00
    OK