Cifra Club

Solamente Una Vez

Trio Los Panchos

Tablatura: Principal (guitarra)
Tom: E
     E  F#m G#m    Gm F#m  B7             F#m B7        E C#m F#m B7 
E|-7-9-7-------------------7-9-7---------9-11-9-----9---12-11-7--------| 
B|-------5-7-9-----------9-------7--------------7-9-------------9------| 
G|---------------------------------------------------------------------| 
D|---------------------------------------------------------------------| 
A|---------------------------------------------------------------------| 
E|---------------------------------------------------------------------| 
 
        E         F#m     G#m      Gm     F#m 
E|---------12-12-12--11-11-11---9-9-9----7-9-7-----7---------------| 
B|---------------------------------------------7-9---7-------------| 
G|-----------------------------------------------------------------| 
D|-----------------------------------------------------------------| 
A|-----------------------------------------------------------------| 
E|-----------------------------------------------------------------| 
 
 B7         F#m                B7             E C#m F#m B7 
E|-----------------------------------------------------------------| 
B|-----12-12-12--10-10-10--9-9-9--7--7-7--5-4-5--------------------| 
G|-----------------------------------------------------------------| 
D|-----------------------------------------------------------------| 
A|-----------------------------------------------------------------| 
E|-----------------------------------------------------------------| 
               E   F#m   G#m 
Solamente una vez, 
  Gm       F#m   B7 
amé en la vida. 
              F#m     B7 
Solamente una vez, 
        E   C#m  F#m  B7 
y nada más. 
 
     E         F#m       G#m 
Una vez, nada más en mi huerto 
    Gm         F#m     B7 
brilló la esperanza, 
       F#m                      B7 
la esperanza que alumbra el camino 
           E  C#m  F#m  B7 
de mi soledad. 
 
               E   F#m   G#m 
Solamente una vez, 
       Gm     F#m     B7 
se entrega el alma, 
                 F#m    B7 
con la dulce y total, 
          E   C#m  F#m  B7 
renunciación. 
 
          E     F#m     G#m 
Y cuando ese milagro realiza 
       Gm        F#m     B7 
el prodigio de amarse 
        F#m                    B7 
hay campanas de fiesta que cantan 
           E   C#m  F#m  B7 
en el corazón. 
 
 
 
 
             E  F#m G#m    Gm F#m  B7             F#m B7        E C#m F#m B7 
E|-7-9-7-------------------7-9-7---------9-11-9-----9---12-11-7--------| 
B|-------5-7-9-----------9-------7--------------7-9-------------9------| 
G|---------------------------------------------------------------------| 
D|---------------------------------------------------------------------| 
A|---------------------------------------------------------------------| 
E|---------------------------------------------------------------------| 
 
        E         F#m     G#m      Gm     F#m 
E|---------12-12-12--11-11-11---9-9-9----7-9-7-----7---------------| 
B|---------------------------------------------7-9---7-------------| 
G|-----------------------------------------------------------------| 
D|-----------------------------------------------------------------| 
A|-----------------------------------------------------------------| 
E|-----------------------------------------------------------------| 
 
 B7         F#m                B7             E C#m F#m B7 
E|-----------------------------------------------------------------| 
B|-----12-12-12--10-10-10--9-9-9--7--7-7--5-4-5--------------------| 
G|-----------------------------------------------------------------| 
D|-----------------------------------------------------------------| 
A|-----------------------------------------------------------------| 
E|-----------------------------------------------------------------| 
              E     F#m     G#m 
Una vez nada más 
      Gm      F#m     B7 
se entrega el alma, 
                 F#m    B7 
con la dulce y total, 
          E   C#m  F#m  B7 
renunciación. 
 
          E     F#m     G#m 
Y cuando ese milagro realiza 
       Gm        F#m     B7 
el prodigio de amarse 
        F#m                    B7 
hay campanas de fiesta que cantan 
           E   C#m  F#m  B7 
en el corazón.
reproducciones 3.461
Acordes para:

    0 comentarios

    mostrar más comentarios

    ¿Conseguiste tocar?

    0 tocaron 0 aún no

    ¡Graba un vídeo tocando Solamente Una Vez y envianoslo!

    00:00 / 00:00
    outros vídeos desta música
    repetir qualidade Automático
    Outros vídeos desta música
    00:00 / 00:00
    Automático
    OK