Cifra Club

Telefone Mudo

Trio Parada Dura

Chords: Principal (acoustic and electric guitars)
tone: A
[Intro] (passagem 1) D  A  E7  A
        (passagem 1) D  A  E7  A

[Tab - Passagem 1]

E|--------------------------------------------|
B|--------------------------------------------|
G|--------------------------------------------|
D|--------------------------------------------|
A|--0--2--4-----------------------------------|
E|--------------------------------------------|

[Tab - Intro]

Parte 1 de 5
          D                       A
E|-----4--5-5-5-5-5-4-5-5-5-5-4-4-0-----------|
B|-5-7----7-7-7-7-7-5-7-7-7-7-6-6-2----2---2--|
G|-----------------------------------2---2----|
D|--------------------------------------------|
A|--------------------------------------------|
E|--------------------------------------------|

Parte 2 de 5    
E|----5---5---5-------------------------------|
B|--2---2---2---------------------------------|
G|--------------------------------------------|
D|--------------------------------------------|
A|--------------------------------------------|
E|--------------------------------------------|
 
Parte 3 de 5
          E7                          A
E|--------0-0---0-----------------------------|
B|---2-3-------------3---2---2---0----2-------|
G|-4----------1-----------------------2-------|
D|-----------------4---2---2---0--------------|
A|--------------------------------------------|
E|--------------------------------------------|

Parte 4 de 5
        D                               A
E|-2-4--5-5-5-5-5--4-5---5-4-7-5--------------|
B|-3-5--7-7-7-7-7--5-7---7-5-9-7--7-5---------|
G|------------------------------------7-6-----|
D|--------------------------------------------|
A|--------------------------------------------|
E|--------------------------------------------|

Parte 5 de 5 
       E7                          A
E|-------------------------0------------------|
B|-2-3-5-5-5-5-3--3-2----2---3-0-2------------|
G|---------------------------------2----------|
D|--------------------------------------------|
A|--------------------------------------------|
E|--------------------------------------------|

[Primeira Parte]

     D
Eu quero que risque
                    A
O meu nome da sua agenda
    E7             D
Esqueça o meu telefone
           A
Não me ligue mais
     D
Porque já estou cansado
            A
De ser o remédio
                 E7
Pra curar o seu tédio
                              A (passagem 2)
Quando seus amores não lhe satisfaz

[Tab - Passagem 2]

E|--------------------------------------------|
B|--------------------------------------------|
G|--------------------------------------------|
D|--------------------------------------------|
A|-----4-----2--------------------------------|
E|--5-----4-----2-----------------------------|

[Refrão]

    E7
Cansei de ser o seu palhaço
   D             A
Fazer o que sempre quis
                     E7
Cansei de curar sua fossa
             D               A (passagem 2)
Quando você não se sentia feliz
    E7   
Por isso é que decidi
   D            A
O meu telefone cortar
                        E7
Você vai discar várias vezes
          D        E7    A (passagem 1)
Telefone mudo não pode chamar

[Solo] D  A  E7  A (passagem 1)
       D  A  E7  A

[Tab - Solo]

Parte 1 de 5
          D                       A
E|-----4--5-5-5-5-5-4-5-5-5-5-4-4-0-----------|
B|-5-7----7-7-7-7-7-6-7-7-7-7-6-6-2----2---2--|
G|-----------------------------------2---2----|
D|--------------------------------------------|
A|--------------------------------------------|
E|--------------------------------------------|

Parte 2 de 5    
E|----5---5---5-------------------------------|
B|--2---2---2---------------------------------|
G|--------------------------------------------|
D|--------------------------------------------|
A|--------------------------------------------|
E|--------------------------------------------|
 
Parte 3 de 5
          E7                          A
E|--------0-0---0-----------------------------|
B|---2-3-------------3---2---2---0----2-------|
G|-4----------1-----------------------2-------|
D|-----------------4---2---2---0--------------|
A|--------------------------------------------|
E|--------------------------------------------|

Parte 4 de 5
        D                               A
E|-2-4--5-5-5-5-5--4-5---5-4-7-5--------------|
B|-3-5--7-7-7-7-7--6-7---7-6-9-7--7-5---------|
G|------------------------------------7-6-----|
D|--------------------------------------------|
A|--------------------------------------------|
E|--------------------------------------------|

Parte 5 de 5 
       E7                          A
E|-------------------------0------------------|
B|-2-3-5-5-5-5-3--3-2----2---3-0-2------------|
G|---------------------------------2----------|
D|--------------------------------------------|
A|--------------------------------------------|
E|--------------------------------------------|

[Primeira Parte]

     D
Eu quero que risque
                    A
O meu nome da sua agenda
    E7             D
Esqueça o meu telefone
           A
Não me ligue mais
     D
Porque já estou cansado
            A
De ser o remédio
                 E7
Pra curar o seu tédio
                              A (passagem 2)
Quando seus amores não lhe satisfaz

[Refrão]

    E7
Cansei de ser o seu palhaço
   D             A
Fazer o que sempre quis
                     E7
Cansei de curar sua fossa
             D               A (passagem 2)
Quando você não se sentia feliz
    E7   
Por isso é que decidi
   D            A
O meu telefone cortar
                        E7
Você vai discar várias vezes
          D        E7    A 
Telefone mudo não pode chamar

[Final] E7  A  E7  A 

[Tab - Final]

Parte 1 de 2
                    E7      
E|---------------------------11---------------|
B|-2-3--5-5-5-5-7-5-9-9-9-9--9----------------|
G|-2-4--6-6-6-6-7-6-9-9-9-9-------------------|
D|--------------------------------------------|
A|--------------------------------------------|
E|--------------------------------------------|

Parte 2 de 2
                          A   E7      A
E|--------------------------------------------|
B|-7-5------5-5--9--7--3--2---5-3-2-----------|
G|-----7-6--6-6--9--7--4--2---------4-2-------|
D|--------------------------------------------|
A|--------------------------------------------|
E|--------------------------------------------|

     
00:00 / 00:00
Other videos of this song
Repeat
Other videos of this song
Composed by Franco / Peao Carreiro
18.158 views
  • Simplify chords
    • ½ Tone
    • A
    • Bb
    • B
    • C
    • Db
    • D
    • Eb
    • E
    • F
    • F#
    • G
    • Ab
  • Add to list
    00:00 / 00:00
    OK