Cifra Club

Telefone Mudo

Trio Parada Dura

Cifrado: Principal (guitarra y guitarra eléctrica)
tono: A (con acordes en la forma de G) Capotraste en 2ª casa
[Intro] G  C  G  D  G
        C  G  D  G

E|--------2/3-3-3-3-3-3-2-3-3-3-2-2-2-------|
B|--------3/5-5-5-5-5-5-3-5-5-5-3-3-3-0-----|
G|------------------------------------------|
D|------------------------------------------|
A|---0-2------------------------------------|
E|-3----------------------------------------|

E|------------------------------------------|
B|-----1-3-1-3-0-1--------------------------|
G|-2h4-------------2-4-2-4-2-2-2/4~---------|
D|------------------------------------------|
A|------------------------------------------|
E|------------------------------------------|

E|-------2/3-3-3-3-3-2-3-3-3-5-5-5-7-7-7----|
B|-------3/5-5-5-5-5-3-5-5-5-7-7-7-8-8-8----|
G|------------------------------------------|
D|------------------------------------------|
A|---0-2------------------------------------|
E|-3----------------------------------------|

E|-8--8--8--10-10-10-12-12-12---------------|
B|-10-10-10-12-12-12-13-13-13---------------|
G|------------------------------------------|
D|------------------------------------------|
A|------------------------------------------|
E|------------------------------------------|

E|-14-14-14-14-12-12-10-10--8--10-12-8--7---|
B|-15-15-15-15-13-13-12-12--10-12-13-10-8---|
G|------------------------------------------|
D|------------------------------------------|
A|------------------------------------------|
E|------------------------------------------|

[Refrão]

     C                                  G
Eu quero que risque o meu nome da sua agenda
    D              C              G
Esqueça o meu telefone não me ligue mais              
     C                              G
Porque já estou cansado de ser o remédio
                 D                                   G    D/F#  Em7
Pra curar o seu tédio, quando seus amores não lhe satisfaz

[Primeira Parte]

    D                           C             G
Cansei de ser o seu palhaço, fazer o que sempre quis
                     D                  
Cansei de curar sua fossa
             C               G  D/F#  Em7
Quando você não se sentia feliz

[Segunda Parte]

    D                     C            G
Por isso é que decidi, o meu telefone cortar
                        D               C        D     G
Você vai discar várias vezes, telefone mudo não pode chamar

[Solo] G  C  G  D  G
       C  G  D  G

E|--------2/3-3-3-3-3-3-2-3-3-3-2-2-2-------|
B|--------3/5-5-5-5-5-5-3-5-5-5-3-3-3-0-----|
G|------------------------------------------|
D|------------------------------------------|
A|---0-2------------------------------------|
E|-3----------------------------------------|

E|------------------------------------------|
B|-----1-3-1-3-0-1--------------------------|
G|-2h4-------------2-4-2-4-2-2-2/4~---------|
D|------------------------------------------|
A|------------------------------------------|
E|------------------------------------------|

E|-------2/3-3-3-3-3-2-3-3-3-5-5-5-7-7-7----|
B|-------3/5-5-5-5-5-3-5-5-5-7-7-7-8-8-8----|
G|------------------------------------------|
D|------------------------------------------|
A|---0-2------------------------------------|
E|-3----------------------------------------|

E|-8--8--8--10-10-10-12-12-12---------------|
B|-10-10-10-12-12-12-13-13-13---------------|
G|------------------------------------------|
D|------------------------------------------|
A|------------------------------------------|
E|------------------------------------------|

E|-14-14-14-14-12-12-10-10--8--10-12-8--7---|
B|-15-15-15-15-13-13-12-12--10-12-13-10-8---|
G|------------------------------------------|
D|------------------------------------------|
A|------------------------------------------|
E|------------------------------------------|

[Refrão]

     C                                  G
Eu quero que risque o meu nome da sua agenda
    D              C              G
Esqueça o meu telefone não me ligue mais              
     C                              G
Porque já estou cansado de ser o remédio
                 D                                   G    D/F#  Em7
Pra curar o seu tédio, quando seus amores não lhe satisfaz

[Primeira Parte]

    D                           C             G
Cansei de ser o seu palhaço, fazer o que sempre quis
                     D                  
Cansei de curar sua fossa
             C               G  D/F#  Em7
Quando você não se sentia feliz

[Segunda Parte]

    D                     C            G
Por isso é que decidi, o meu telefone cortar
                        D               C        D     G
Você vai discar várias vezes, telefone mudo não pode chamar

[Primeira Parte]

    D                           C             G
Cansei de ser o seu palhaço, fazer o que sempre quis
                     D                  
Cansei de curar sua fossa
             C               G  D/F#  Em7
Quando você não se sentia feliz

[Segunda Parte]

    D                     C            G
Por isso é que decidi, o meu telefone cortar
                        D               C        D     G   D  G
Você vai discar várias vezes, telefone mudo não pode chamar
Composición de Franco / Peao Carreiro
16.017 vistas
  • Simplificar cifrado
    • ½ Tono
    • A
    • Bb
    • B
    • C
    • Db
    • D
    • Eb
    • E
    • F
    • F#
    • G
    • Ab
  • Agregar a la lista

    0 comentarios

    Ver todos los comentarios

    ¿Lograste tocar?

    133 Tocaron 44 Aún no

    ¡Graba un video tocando Telefone Mudo y envíanoslo!

    00:00 / 00:00
    Outros vídeos desta música
    Repetir Calidad Automático
    Outros vídeos desta música
    00:00 / 00:00
    Automático
    OK