Cifra Club

Evenfall

Tristania

Cifrado: Principal (guitarra y guitarra eléctrica)
Selo Cifra Club: esta cifra foi revisada para atender aos critérios oficiais da nossa Equipe de Qualidade.
tono: E
e|-----------------|
b|-----------------|
g|-----------------|
D|-2-2--2-2---5--4-|
A|-2-2--2-2--------|
E|-0-0--0-0--------|
   * *  *
*p.m

i2)
e|---------------------|
b|---------------------|
g|---------------------|
D|-2-2--2-2---5--7-4--2|
A|-2-2--2-2------------|
E|-0-0--0-0------------|
   * *  *
*p.m


A)
e|-----------|
b|-----------|
g|-----2-----|
D|-5-4-0-4---|
A|-3-2---2-5-|
E|---------3-|


B)
e|-------------------------------|
b|-------------------------------|
g|-------------------------------|
D|-7/9-9-9--7/9-9----7/9-9-9-9-9-|
A|-5/7-7-7--5/7-7----5/7-7-7-7-7-|
E|-5/7-7-7--5/7-7----5/7-7-7-7-7-|


C)
e|--------------------------------|
b|--------------------------------|
g|--------------------------------|
D|-2--5-4-4-4-4--9--9-9-10-10-7-7-|
A|-2--5-2-4-4-4--7--7-7-8--8--7-7-|
E|-0--3-2-2-2-2--7--7-7-8--8--5-5-|


D)
e|------------------------------------------------------------|
b|------------------------------------------------------------|
g|-----7--5--4--4-5-----------------5--5--5-7-5-4---------4---|
D|-2---7--5--4--4-5-2-2-2-2-2-2-10--7--5--5-5-7-5-4-4-4-5-5-4-|
A|-2---5--3--2--2-3-2-2-2-2-2-2-10--7--3--3-3-5-3-2-2-2-3-3-2-|
E|-0---5--3--2--2-3-0-0-0-0-0-0-8---5--3--3-3-5-3-2-2-2-3-3-2-|
                      * *   * *                   * * * *
*p.m


E)
e|-------------------------|
b|--------------------8~~--|
g|----------------7--------|
D|-2----5-7-7-7-7-7--------|
A|-2--------------5--------|
E|-0----3-5-5-5-5-5--------|
on first couple of times like this, then just strum...

F)
e|----------------------------------------------|
b|----------------------------------------------|
g|----------------------------------------------|
D|-2-2-2-2---5-5h7p5-4-5-4--2-2-2-2---5-5h7p5-4-|
A|-2-2-2-2------------------2-2-2-2-------------|
E|-0-0-0-0------------------0-0-0-0-------------|
   * * *                    * * *


G)
e|----------------------------------|
b|----------------------------------|
g|--------4-------------------------|
D|-2------4-----4----5------7--5--4-|gtr1
A|-2------2-----4----5------7--5--4-|
E|-0------------2----3------5--3--2-|

G1)
e|----------------------------------|
b|----------------------------------|
g|-----------7-6--------------------|
D|---5---9-------4--4-2-5---5/7-4-5-|gtr2
A|-----7----------------------------|
E|----------------------------------|


H)
e|------------------|
b|------------------|
g|------------------|
D|-7-7-7--7-7-5---3-|
A|-5-5-5--5-5-3---1-|
E|-5-5-5--5-5-3---1-|

Otros videos de esta canción
    131 exhibiciones
      • ½ Tono
      • A
      • Bb
      • B
      • C
      • Db
      • D
      • Eb
      • E
      • F
      • F#
      • G
      • Ab
    • Agregar a la lista

    Afinação da cifra

    Afinador online

      Ops (: Contenido disponible solo en portugués.
      OK