Cifra Club

Happy Together

The Turtles

Cifrado: Principal (guitarra y guitarra eléctrica)
Selo Cifra Club: esta cifra foi revisada para atender aos critérios oficiais da nossa Equipe de Qualidade.
tono: A
[Intro] F#m

[Tab - Intro]

                 F#m
E|--------5--4--2------2--0--2-----|
B|---------------------------------|
G|---------------------------------|
D|-----4------------4--------------|
A|---4------------4----------------|
E|---------------------------------|

                  E
E|--------4--2--0------0--2--4-----|
B|---------------------------------|
G|---------------------------------|
D|-----2------------2--------------|
A|---2------------2----------------|
E|---------------------------------|

                  D
E|--------2--0--2------2--0--2-----|
B|---------------------------------|
G|---------------------------------|
D|-----0------------0--------------|
A|---0------------0----------------|
E|---------------------------------|
                  C#
E|---------------------------------|
B|--------6--4--6------6--4--6-----|
G|---------------------------------|
D|---------------------------------|
A|-----4------------4--------------|
E|---4------------4----------------|

        F#m
Imagine me and you, I do
                    E
I think about you day and night
It's only right
                   D
To think about the girl you love
And hold her tight
            C#
So happy together

            F#m
If I should call you up
Invest a dime
                  E
And you say you belong to me
And ease my mind
                 D
Imagine how the world could be
So very fine
            C#
So happy together

[Refrão]

F#              C#m              F#
I can't see me lovin' nobody but you
            A
For all my life
F#                   C#m                   F#
When you're with me, baby the skies'll be blue
            A
For all my life

F#m
Me and you
And you and me
                     E
No matter how they tossed the dice
It had to be
                 D
The only one for me is you
And you for me

(C#  F#m)
So happy together
So happy together
How is the weather
So happy together
We're happy together
So happy together
Otros videos de esta canción
    67.320 exhibiciones
      • ½ Tono
      • A
      • Bb
      • B
      • C
      • Db
      • D
      • Eb
      • E
      • F
      • F#
      • G
      • Ab
    • Agregar a la lista

    Afinação da cifra

    Afinador online

      Ops (: Contenido disponible solo en portugués.
      OK