Cifra Club

Lanternen

Tv-2

Cifrado: Principal (guitarra y guitarra eléctrica)
Selo Cifra Club: esta cifra foi revisada para atender aos critérios oficiais da nossa Equipe de Qualidade.
tono: Am
  Intro

   D5   E5 F5 E5   D5   E5 F5 E5
E|---------------|---------------|
B|---------------|---------------|
G|-7-7--9--10-9--|-7-7--9--10-9--|
D|-7-7--9--10-9--|-7-7--9--10-9--|
A|-5-5--7--8--7--|-5-5--7--8--7--|
E|---------------|---------------|


  Keyboard-theme arranged for guitar


   C               Em           C               Em          
E|------|--------|-------|----|------|--------|-------|----|
B|------|--------|----8--|----|------|--------|----8--|----|
G|-9----|---9--7-|-------|----|-9----|---9--7-|-------|----|
D|------|--------|-9-----|----|------|--------|-9-----|----|
A|------|--------|-------|----|------|--------|-------|----|
E|------|--------|-------|----|------|--------|-------|----|

   F       Fm            C
E|-------|-------------|-----|------|
B|-------|------8------|-----|------|
G|-10----|-10------10--|-9---|------|
D|-------|-------------|-----|------|
A|-------|-------------|-----|------|
E|-------|-------------|-----|------|


C                Em
Åh, åh jeg ville gerne
C                   Em
tænde, tænde din lanterne
F         Fm             C
Uh uh uh, uh uh uh elske dig

C                     Em
Men jeg, jeg er ingen stjerne
   C                Em
og alle, alle ville gerne
F         Fm             C
Uh uh uh, uh uh uh elske dig

A
Tænker på dig
D
drømmer om dig
F#m
venter på dig
          E
indtil alting
     G
er forbi
Otros videos de esta canción
    2 exhibiciones
      • ½ Tono
      • Am
      • Bbm
      • Bm
      • Cm
      • C#m
      • Dm
      • Ebm
      • Em
      • Fm
      • F#m
      • Gm
      • G#m
    • Agregar a la lista

    Afinação da cifra

    Afinador online

      Ops (: Contenido disponible solo en portugués.
      OK