Cifra Club

She Couldnt Laugh

Twarres

Cifrado: Principal (guitarra y guitarra eléctrica)
Selo Cifra Club: esta cifra foi revisada para atender aos critérios oficiais da nossa Equipe de Qualidade.
tono: Em
E|-------------------------------------------------------------------|

Intro


E|--------0-------|-------------|-------------|-------------|------|
B|----------0---0-|-------0-----|-------0-----|-------0-----|------|
G|-1--2h4---------|-----4---4---|-----4---4---|-----4---4---|------|
D|------------2---|---2-------2-|---2-------2-|---2-------2-|------|
A|----------------|-------------|-------------|-------------|------|
E|----------------|-0-----------|-0-----------|-0-----------|-0----|


Verse


   When I saw   you guys dancing in the sun   A shadow fell on my hearth

E|-------------|-------------|-------------|-------------|-------------|
B|-------0-----|-------0-----|-------0-----|-------0-----|-------0-----|
G|-----4---4---|-----4---4---|-----4---4---|-----4---4---|-----4---4---|
D|---2-------2-|---2-------2-|---2-------2-|---2-------2-|---2-------2-|
A|-------------|-------------|-0-----------|-0-----------|-------------|
E|-0-----------|-4-----------|-------------|-------------|-0-----------|

   You where the worst mistake ever made

E|-------------|-------------|-------------|
B|-------0-----|-------0-----|-------0-----|
G|-----4---4---|-----4---4---|-----4---4---|
D|---2-------2-|---2-------2-|---2-------2-|
A|-------------|-0-----------|-0-----------|
E|-4-----------|-------------|-------------|


   And she laughed too loud at your jokes  Yes I know you were funny

E|-------------|-------------|-------------|-------------|-------------|
B|-------0-----|-------0-----|-------0-----|-------0-----|-------0-----|
G|-----4---4---|-----4---4---|-----4---4---|-----4---4---|-----4---4---|
D|---2-------2-|---2-------2-|---2-------2-|---2-------2-|---2-------2-|
A|-------------|-------------|-0-----------|-0-----------|-------------|
E|-0-----------|-4-----------|-------------|-------------|-0-----------|

       But I     couldn’t laugh

E|-------------|-------------|-------------|
B|-------0-----|-------0-----|-------0-----|
G|-----4---4---|-----4---4---|-----4---4---|
D|---2-------2-|---2-------2-|---2-------2-|
A|-------------|-0-----------|-0-----------|
E|-4-----------|-------------|-------------|


Pre – Chorus


Because I knew where it would lead.

E|-------0---|-------0-----|------| last note can
B|-----0---0-|-----0---0---|------| also be an
G|---6-------|---4---------|------| “E”
D|-----------|-------------|------| chord: 02210x
A|-4---------|-2-----------|------|
E|-----------|-------------|-0----|

Chorus


  Now the anger has drowned out all the jokes,  she couldn’t  laugh anymore

E|------------|-------------|----------------|--------------|-----------|
B|-------0----|-------0-----|-------0--------|-------0------|-------0---|
G|-----4---4--|-----4---4---|-----4---4------|-----4---4----|-----4---4-|
D|---2--------|---2-------2-|---2-------2----|---4-------4--|---2-------|
A|------------|-------------|-0--------------|-2------------|-----------|
E|-0----------|-4-----------|----------------|--------------|-0---------|

   See the pain in her   smile.

E|----------------|----------------|--------------|
B|----------0-----|----------------|-------0------|
G|--------4---4---|-------0--------|-----4---4----|
D|------2-------2-|-----4---4------|---4-------4--|
A|----------------|---2-------2----|-2------------|
E|----4-----------|-0--------------|--------------|

 And she’s tried, yes she’s tried to  run away, but you would not let her go

E|---------------|--------------|-------------|--------------|-----------|
B|----------0----|-------0------|-------0-----|-------0------|-------0---|
G|--------4---4--|-----4---4----|-----4---4---|-----4---4----|-----4---4-|
D|------2--------|---2-------2--|---2-------2-|---4-------4--|---2-------|
A|---------------|--------------|-0-----------|-2------------|-----------|
E|----0----------|-4------------|-------------|--------------|-0---------|

   You are her ball and her chain.

E|----------------|----------------|--------------|
B|----------0-----|----------------|-------0------|
G|--------4---4---|-------0--------|-----4---4----|
D|------2-------2-|-----4---4------|---4-------4--|
A|----------------|---2-------2----|-2------------|
E|----4-----------|-0--------------|--------------|

Bridge


E|---------0---|-------------|-----------5---|-0-(0)-|
B|-------5---5-|--------4----|---------2---2-|-1-(1)-| let the
G|-----6-------|------4---4--|-------2-------|-2-(2)-| last note
D|---6---------|----4-------4|-----4---------|-2-(2)-| ring
A|-4-----------|-2-----------|---4-----------|-0-(o)-|
E|-------------|-------------|-2-------------|-x-----|


Verse


    Now I wish you were dancing   in the sun,  but the steps were all wrong

E|------------|-------------|----------------|-------0------|-----------|
B|-------0----|-------0-----|-------0--------|-----0---0----|-------0---|
G|-----4---4--|-----4---4---|-----4---4------|---4-------4--|-----4---4-|
D|---2--------|---2-------2-|---2-------2----|--------------|---2-------|
A|------------|-------------|-0--------------|-2------------|-----------|
E|-0----------|-4-----------|----------------|--------------|-0---------|

    So release her from her chains now.

E|----------------|----------------|--------------|
B|----------------|----------------|--------------|
G|----------0-----|-------0--------|-------0------|
D|--------4---4---|-----4---4------|-----4---4----|
A|------2-------2-|---2-------2----|---4-------4--|
E|----------------|-0--------------|-2------------|

    With your jokes you imprisoned her heart,  you never gave her a chance

E|---------------|--------------|-------------|--------------|-----------|
B|----------0----|-------0------|-------0-----|-------0------|-------0---|
G|--------4---4--|-----4---4----|-----4---4---|-----4---4----|-----4---4-|
D|------2--------|---2-------2--|---2-------2-|---4-------4--|---2-------|
A|---------------|--------------|-0-----------|-2------------|-----------|
E|----0----------|-4------------|-------------|--------------|-0---------|

      She never knew you couldn’t dance.

E|----------------|----------------|--------------|
B|----------------|----------------|--------------|
G|----------0-----|-------0--------|-------0------|
D|--------4---4---|-----4---4------|-----4---4----|
A|------2-------2-|---2-------2----|---4-------4--|
E|----------------|-0--------------|-2------------|


Bridge


E|---------0---|-------------|-----------5---|-0-(0)-|
B|-------5---5-|--------4----|---------2---2-|-1-(1)-| let the
G|-----6-------|------4---4--|-------2-------|-2-(2)-| last note
D|---6---------|----4-------4|-----4---------|-2-(2)-| ring
A|-4-----------|-2-----------|---4-----------|-0-(o)-|
E|-------------|-------------|-2-------------|-x-----|


Solo part ( 2nd guitar/ rhythm guitar )

E|-------------|-------------|-------------|---------0---|-----------|
B|-------0-----|-------0-----|-------0-----|-------5---0-|-------4---|
G|-----4---4---|-----4---4---|-----4---4---|-----6-------|-----4---4-|
D|---2-------2-|---2-------2-|---2-------2-|---6---------|---4-------|
A|-------------|-------------|-------------|-4-----------|-2---------|
E|-0-----------|-0-----------|-4-----------|-------------|-----------|

E|-------------|-------2-----|
B|-------0-----|-----3---3---|
G|-----4---4---|---2-------2-|
D|---2-------2-|-0-----------|
A|-0-----------|-------------|
E|-------------|-------------|

E|-------------|-------------|-------------|---------0---|-----------|
B|-------0-----|-------0-----|-------0-----|-------5---0-|-------4---|
G|-----4---4---|-----4---4---|-----4---4---|-----6-------|-----4---4-|
D|---2-------2-|---2-------2-|---2-------2-|---6---------|---4-------|
A|-------------|-------------|-------------|-4-----------|-2---------|
E|-0-----------|-0-----------|-4-----------|-------------|-----------|

E|-------------|-------2-----|
B|-------0-----|-----3---3---|
G|-----4---4---|---2-------2-|
D|---2-------2-|-0-----------|
A|-0-----------|-------------|
E|-------------|-------------|

E|-x--2------|--x--2---------|
B|-3--3------|--3--3---------|
G|-0--2--p| m--|--0--2--pm-----|
D|-0--0------|--0--0---------|
A|-x--x------|--x--x---------|
E|-3--x------|--3--x---------|

Chorus

Now the anger has drowned out all the jokes she couldn’t laugh anymore,

E|------------|-------------|----------------|----------------|-----------|
B|-------3----|-------3-----|-------3--------|-------3-3------|-------3---|
G|-----0---0--|-----0---0---|-----0---0------|-----2-----2----|-----0---0-|
D|---0--------|---0-------0-|---2-------2----|---0---------0--|---0-------|
A|------------|-2-----------|-3--------------|----------------|-----------|
E|-3----------|-------------|----------------|----------------|-3---------|

     See the pain in her smile.

E|----------------|----------------|--------------|
B|-------3--------|-------3--------|------3-3-----|
G|-----0---0------|-----0---0------|----2-----2---|
D|---0-------0----|---2-------2----|--0---------0-|
A|-2--------------|-3--------------|--------------|
E|----------------|----------------|--------------|

    And she’s tried yes she’s tried to run away,  but you would not let her go

E|------------|-------------|----------------|--------------|-----------|
B|-------3----|-------3-----|-------3--------|-----3-3------|-------3---|
G|-----0---0--|-----0---0---|-----0---0------|---2-----2----|-----0---0-|
D|---0--------|---0-------0-|---2-------2----|-0---------0--|---0-------|
A|------------|-2-----------|-3--------------|--------------|-----------|
E|-3----------|-------------|----------------|--------------|-3---------|

    You are her ball and her chain.

E|----------------|----------------|--------------|
B|-------3--------|-------3--------|------3-3-----|
G|-----0---0------|-----0---0------|----2-----2---|
D|---0-------0----|---2-------2----|--0---------0-|
A|-2--------------|-3--------------|--------------|
E|----------------|----------------|--------------|

Verse

  Now I wish you were dancing in the sun,   but the steps were all wrong

E|------------|-------------|----------------|----------------|-----------|
B|-------3----|-------3-----|-------3--------|-------3-3------|-------3---|
G|-----0---0--|-----0---0---|-----0---0------|-----2-----2----|-----0---0-|
D|---0--------|---0-------0-|---2-------2----|---0---------0--|---0-------|
A|------------|-2-----------|-3--------------|----------------|-----------|
E|-3----------|-------------|----------------|----------------|-3---------|

      So release her from her chains now.

E|----------------|----------------|--------------|
B|-------3--------|-------3--------|------3-3-----|
G|-----0---0------|-----0---0------|----2-----2---|
D|---0-------0----|---2-------2----|--0---------0-|
A|-2--------------|-3--------------|--------------|
E|----------------|----------------|--------------|

    With your jokes you imprisoned her heart, you never gave her a chance

E|------------|-------------|----------------|--------------|-----------|
B|-------3----|-------3-----|-------3--------|-----3-3------|-------3---|
G|-----0---0--|-----0---0---|-----0---0------|---2-----2----|-----0---0-|
D|---0--------|---0-------0-|---2-------2----|-0---------0--|---0-------|
A|------------|-2-----------|-3--------------|--------------|-----------|
E|-3----------|-------------|----------------|--------------|-3---------|

    She never knew you couldn’t dance.

E|----------------|---------3-(3)----|
B|-------3--------|---------3-(3)----| let the
G|-----0---0------|---------0-(0)----| last note
D|---0-------0----|---------2-(2)----| ring
A|-2--------------|---------3-(3)----|
E|----------------|---------x--------|


Bridge

E|-----------0-|-------2-----|---------0-----|-0-(0)-|
B|---------0---|-----3---3---|-------0---0---|-5-(5)-| let the
G|-------0-----|---2-------2-|-----1---------|-6-(6)-| last note
D|-----2-------|-0-----------|---2-----------|-6-(6)-| ring
A|---2---------|-------------|-2-------------|-4-(4)-|
E|-0-----------|-------------|---------------|-x-----|


Outro


E|----------------|----------------|-----------0----|-------2--------|
B|-------3--------|-------3--------|---------0------|-----3---3------|
G|-----0---0------|-----0---0------|-------0--------|---2-------2----|
D|---0-------0----|---0-------0----|-----2----------|-0--------------|
A|----------------|-2--------------|---2------------|----------------|
E|-3--------------|----------------|-0--------------|----------------|

E|----------------|-----------1----|----------------|----------------|
B|-------3--------|---------1------|-------3--------|-------3--------|
G|-----0---0------|-------2--------|-----0---0------|-----0---0------|
D|---2-------2----|-----3----------|---0-------0----|---0-------0----|
A|-3--------------|---3------------|----------------|-2--------------|
E|----------------|-1--------------|-3--------------|----------------|

E|----------------|----------------|-----------0----|-------2--------|
B|-------3--------|-------3--------|---------0------|-----3---3------|
G|-----0---0------|-----0---0------|-------0--------|---2-------2----|
D|---0-------0----|---0-------0----|-----2----------|-0--------------|
A|----------------|-2--------------|---2------------|----------------|
E|-3--------------|----------------|-0--------------|----------------|

E|----------------|-----------1----|----------------|----------------|
B|-------3--------|---------1------|-------3--------|-------3--------|
G|-----0---0------|-------2--------|-----0---0------|-----0---0------|
D|---2-------2----|-----3----------|---0-------0----|---0-------0----|
A|-3--------------|---3------------|----------------|-2--------------|
E|----------------|-1--------------|-3--------------|----------------|

E|----------------|----------------|-----------0----|-------2--------|
B|-------3--------|-------3--------|---------0------|-----3---3------|
G|-----0---0------|-----0---0------|-------0--------|---2-------2----|
D|---0-------0----|---0-------0----|-----2----------|-0--------------|
A|----------------|-2--------------|---2------------|----------------|
E|-3--------------|----------------|-0--------------|----------------|
Otros videos de esta canción
    0 exhibiciones
      • ½ Tono
      • Am
      • Bbm
      • Bm
      • Cm
      • C#m
      • Dm
      • Ebm
      • Em
      • Fm
      • F#m
      • Gm
      • G#m
    • Agregar a la lista

    Afinação da cifra

    Afinador online

      Ops (: Contenido disponible solo en portugués.
      OK