Cifra Club

We're Not Gonna Take It

Twisted Sister

Cifrado: Principal (guitarra y guitarra eléctrica)
Selo Cifra Club: esta cifra foi revisada para atender aos critérios oficiais da nossa Equipe de Qualidade.
tono: E
Introdução:

We're not gonna take it
No, we ain't gonna take it
We're not gonna take it anymore

( E5  D#5  C#5  B5 ) (2x)

Primeira Parte:

E5                B5
   We've got the right to choose
E5                     A5
   And there ain't no way we'll lose it
E5              B5                E5  ( B5 )
   This is our life, this is our song

E5                  B5
   We'll fight the powers that be just
E5                 A5
   Don't pick our destiny' cause
E5                B5               E5  ( B5 )
   You don't know us, you don't belong

Primeiro Refrão:

 E5              B5
We're not gonna take it
 E5                 A5
No, we ain't gonna take it
 E5              B5       ( E5  D#5  C#5  B5 )
We're not gonna take it anymore

Segunda Parte:

E5                B5
   Oh, you're so condescending
E5               A5
   Your gall is never ending
E5                B5                    E5 ( B5 )
   We don't want nothin', nothing from you

E5                B5
   Your life is trite and jaded
E5             A5
   Boring and confiscated
E5                 B5
   If that's your best
               ( E5  D#5  C#5  B5 )
Your best won't do

Ponte:

D5    C#5  B5
   Oh Oh   Oh
D5    C#5  B5
   Oh Oh   Oh

       E5
We're right (yeah)
        F5
We're free (yeah)
       F#5
We'll fight (yeah)
        B5
You'll see (yeah)

Segundo Refrão:

 E5              B5
We're not gonna take it
 E5                 A5
No, we ain't gonna take it
 E5              B5         E5  ( B5 )
We're not gonna take it anymore

 E5              B5
We're not gonna take it
 E5                 A5
No, we ain't gonna take it
 E5              B5       ( E5  D#5  C#5  B5 )
We're not gonna take it anymore

No way

Solo: E5  B5  E5  A5  E5  B5  E5 ( B5 )
      E5  B5  E5  A5  E5  B5  ( E5  D#5  C#5  B5 )
(Parte 1)
                   \              \0.5/\0.5/
E|----------------------------------------------------
B|----------------------9----9--10-----------9--------
G|-/9---9-11~----11-------11-------------------11~----
D|----9--------9--------------------------------------
A|----------------------------------------------------
E|----------------------------------------------------
                       \0.5/\0.5/\0.5/\0.5/\0.5/\0.5/
E|----------------------------------------------------
B|-/9---------9~--------------------------------------
G|----11-9-11-----9-9-9-------------------------------
D|----------------------------------------------------
A|----------------------------------------------------
E|----------------------------------------------------
     \0.5/\0.5/\0.5/\0.5/\0.5/\0.5/
E|----------------------------------------------------
B|-12-------------------------------------------------
G|----------------------------------------------------
D|----------------------------------------------------
A|----------------------------------------------------
E|----------------------------------------------------

(Parte 2 - Guitarra 1)
    \0.5/           \0.5/\0.5/\0.5/\0.5/
E|----------------------------------------------------
B|---------------------------------------9~-------9-10
G|-9---------9-11----------------------------9-11-----
D|--------9--------9----------------------------------
A|----------------------------------------------------
E|----------------------------------------------------
    \
E|----------------------------------------------------
B|-------9--9------------9~---------------------------
G|-9-----------11--9-11-------9-9-9~~-----------------
D|----------------------------------------------------
A|----------------------------------------------------
E|----------------------------------------------------

(Parte 2 - Guitarra 2)
     \1.0/              \1.0/\1.0/\1.0/\1.0/
E|-------------------------------------------12~------
B|-12----------12-14------------------------------12--
G|---------13---------11------------------------------
D|----------------------------------------------------
A|----------------------------------------------------
E|----------------------------------------------------
              \
E|----11-12--------12--12-------------12~-------------
B|-14-------12-------------14--12-14-------14-12-12~--
G|----------------------------------------------------
D|----------------------------------------------------
A|----------------------------------------------------
E|----------------------------------------------------


Ponte:

D5    C#5  B5
   Oh Oh   Oh
D5    C#5  B5
   Oh Oh   Oh

       E5
We're right (yeah)
        F5
We're free (yeah)
       F#5
We'll fight (yeah)
        B5
You'll see (yeah)

Terceiro Refrão:

We're not gonna take it
No, we ain't gonna take it
                                ( B5 )
We're not gonna take it anymore

 E5              B5
We're not gonna take it (no)
 E5                 A5
No, we ain't gonna take it
 E5              B5         E5
We're not gonna take it anymore
                          ( B5 )
(Just you try and make us)

 E5              B5
We're not gonna take it (come on)
 E5                 A5
No, we ain't gonna take it
(You're all worthless and weak)
 E5              B5         E5
We're not gonna take it anymore
                              ( B5 )
(Now drop and give me twenty)

 E5              B5
We're not gonna take it (A pledge pin)
 E5                 A5
No, we ain't gonna take it (On your uniform)
 E5              B5         E5
We're not gonna take it anymore
Otros videos de esta canción
    26.906 exhibiciones
      • ½ Tono
      • A
      • Bb
      • B
      • C
      • Db
      • D
      • Eb
      • E
      • F
      • F#
      • G
      • Ab
    • Agregar a la lista

    Afinação da cifra

    Afinador online

      Capítulos
      • Início
      • Encerramento
      • Tocando a música
      • Configuração do Efeito
      • Acordes da Passagem
      • Tocando Introdução
      • Ensinando Passagem
      • Acordes da Primeira Parte
      • Tocando Primeira Parte
      • Ensinando Primeira Parte
      • Acordes do Refrão
      • Tocando Refrão
      • Ensinando Refrão
      • Acordes da Ponte
      • Tocando Ponte
      • Ensinando Ponte
      • Tocando Solo
      • Ensinando Solo - Parte 1
      • Ensinando Solo - Parte 2
      • Tocando Solo (Lento)
      • Ensinando Solo - Parte 2 (Guitarra 2)
      • Tocando Final
      Ops (: Contenido disponible solo en portugués.
      OK