Cifra Club

Love Is A Bitch

Two Feet

Tablatura: Principal (guitarra)
reproducciones 1.064
Tono: C
[Intro]  Am  Dm  F  G  Am
 
      Am      Dm      F       G
E|----5--| ----5--|----1--|----3--|
B|----5--| ----6--|----1--|----3--|
G|----5--| ----7--|----2--|----4--|
D|----7--| ----7--|----3--|----5--|
A|----7--| -5--5--|----3--|----5--|
E|-5--5--| ----5--|-1--1--|-3--3--|

E|----------| ----------------|--------------------------------------------|
B|----------| ----------------|--------------------------------------------|
G|---5-7r~--| -----5/9---5~---|----12-14~--12~-----------------------------|
D|-7--------| -6/7-----7------|-14-------------12/14~-12~--10-12r12p10-----|
A|----------| ----------------|----------------------------------------12~-|
E|----------| ----------------|--------------------------------------------|

    Am
I'm flying
         Dm
I'm flying high like a bird
       F                      G                        Am
But my fluttering wings can't keep you from pullin' me down
     Am
Your mama
               Dm
Your mama says I'm a fool
          F                         G                           Am
And yeah, maybe that's true, 'cause I can't stop thinkin' 'bout you

E|---------------|
B|---------------|
G|---------------|
D|---------------|
A|---------------|
E|-5-5-5-5-5-5-5-|

( Dm  F  Am  G )   
( Dm  F  Am  G )
   
E|----------| ----------------|-------------------------------------------|
B|----------| ----------------|-------------------------------------------|
G|---5-7r~--| -----5/9---5~---|----12-14~--12~----------------------------| (2x)
D|-7--------| -6/7-----7------|-14-------------12/14~-12~--10-12~~~-------|
A|----------| ----------------|-------------------------------------------|
E|----------| ----------------|-------------------------------------------|

    Am
I'm tryin'
                  Dm
I'm tryin' not to forget my words
       F                      G                         Am
'Cause when I'm around you, I tend to keep changin' my mind
  Am
I promise
            Dm
I promise myself not to slip
              F                 G                 Am
Back into old habit 'cause heartbreak is savvy and love is a bitch

E|---------------|
B|---------------|
G|---------------|
D|---------------|
A|---------------|
E|-5-5-5-5-5-5-5-|

( Dm  F  Am  G )
( Dm  F  Am  G )
 
E|----------| ----------------|-------------------------------------------|
B|----------| ----------------|-------------------------------------------|
G|---5-7r~--| -----5/9---5~---|----12-14~--12~----------------------------| (2x)
D|-7--------| -6/7-----7------|-14-------------12/14~-12~--10-12~~~-------|
A|----------| ----------------|-------------------------------------------|
E|----------| ----------------|-------------------------------------------|
Acordes para:
    Colaboración y revision:

    0 comentarios

    mostrar más comentarios

    ¿Conseguiste tocar?

    19 tocaron 2 aún no

    ¡Graba un vídeo tocando Love Is A Bitch y envianoslo!

    00:00 / 00:00
    outros vídeos desta música
    repetir qualidade Automático
    Outros vídeos desta música
    00:00 / 00:00
    Automático
    OK