Cifra Club

12 Black Rainbows

Type O Negative

Cifrado: Principal (guitarra y guitarra eléctrica)
Selo Cifra Club: esta cifra foi revisada para atender aos critérios oficiais da nossa Equipe de Qualidade.
tono: Bm
First time:
E|---------------------------------------------------------|
B|---------------------------------------------------------|
G|---------------------------------------------------------|
D|-5--------------5x-5--------7br~-5h7-5~-5555555----------|
A|---7--------5-7-----7-5~-7x------------------------------|
E|-----5-6-7~----------------------------------------------|
                                         PM-----|
Second time:
E|---------------------------------------------------------|
B|---------------------------------------------------------|
G|---------------------------------------------------------|
D|-5--------------5x-5--------7br~-5h7-5~-X\-55555---------|
A|---7--------5-7-----7-5~-7x------------------------------|
E|-----5-6-7~----------------------------------------------|
                                            PM---|
Last time of this riff:
E|---------------------------------------------------------|
B|---------------------------------------------------------|
G|---------------------------------------------------------|
D|-5--------------5x-5--------7br~-5h7-5~-X\-55555\--------|
A|---7--------5-7-----7-5~-7x------------------------------|
E|-----5-6-7~----------------------------------------------|
                                            PM---|

Pre-Verse
E|------------------------------------------|
B|------------------------------------------|
G|------------------------------------------|
D|--7-7--5-7-xxxxxx--7-7--5-7---------------|
A|--7-7--5-7-xxxxxx--7-7--5-7---------------|
E|--5-5--3-5-xxxxxx--5-5--3-5--7b-rs| low-----|
            PM---|
Second time
E|------------------------------------------|
B|------------------------------------------|
G|------------------------------------------|
D|--7-7--5-7-xxxxxx--7-7--5-7---x5----------|
A|--7-7--5-7-xxxxxx--7-7--5-7------7-x5-----|
E|--5-5--3-5-xxxxxx--5-5--3-5-----------7~--|
            PM---|
That’s the intro! Have fun, I’m working on the rest of the song. Peace!
Otros videos de esta canción
    3 exhibiciones
      • ½ Tono
      • Am
      • Bbm
      • Bm
      • Cm
      • C#m
      • Dm
      • Ebm
      • Em
      • Fm
      • F#m
      • Gm
      • G#m
    • Agregar a la lista

    Afinação da cifra

    Afinador online

      Ops (: Contenido disponible solo en portugués.
      OK