Cifra Club

A Dish Best Served Coldly

Type O Negative

Cifrado: Principal (guitarra y guitarra eléctrica)
Selo Cifra Club: esta cifra foi revisada para atender aos critérios oficiais da nossa Equipe de Qualidade.
tono: F#
E|--------------------------------------------------------|
This song seems to be a keyboard and bass driven song, but I did my best to
put guitar parts into one of my favorite TON songs. Please comment with corrections.

Chord Shapes for Intro:
I can't hear the exact notes, but below are my best guesses
I'm pretty sure it's Josh playing keyboard
E|------|------|------|------|
B|--9---|--10--|--11--|--12--|
G|--10--|--11--|--11--|--11--|
D|--11--|--11--|--11--|--11--|
A|------|------|------|------|
E|------|------|------|------|

Intro
E|--------------------------------------------|
B|-----9----9----9----9----10---10---10---10--|
G|--------------------------------------------|
D|--11---11---11---11---11---11---11---11-----|
A|--------------------------------------------|
E|--------------------------------------------|

E|-----------------------------------------------|
B|----11---11---11---11---12---12---12---12------|
G|-----------------------------------------------|
D|--11---11---11---11---11---11---11---11----11--|
A|-----------------------------------------------|
E|-----------------------------------------------|

E|-----------------------------------------------|
B|----11---11---11---11----10---10---10---10-----|
G|-----------------------------------------------|
D|--11---11---11---11---11---11---11---11----11--|
A|-----------------------------------------------|
E|-----------------------------------------------|

E|--------------------------------|
B|-----9----9----9----9--0--------|
G|-----------------------11-------|
D|--11---11---11---11----11-------|
A|-----------------------9--------|
E|--------------------------------|

Heavy pre chorus part
I usually just play the top notes, not the ones in parentheses
E|------------------------------------------------------|
B|------------------------------------------------------|
G|----------------------------------(11)-(10--(9)-------|
D|-----------------(6)-(8)-(9)------(9)--(8)--(7)-------|
A|--------9--/x/---(4)-(6)-(7)--/x/--9---/8---/7---/x/--|
E|--2/14--7--/x/----4--/6--/7--/x/----------------/x/---|

Chorus
Play either section as the chorus
E|----------------------|-------------------------|
B|----------------------|-------------------------|
G|----------------------|-------------------------|
D|----------------------|--16----11---14----------|
A|--9----4----7----2----|--14----9----12----14----|
E|--7----2----5----0----|-------------------12----|


Mid Section (Post Chorus) 
E|-----------------------------|-----------------------------|
B|-----------------------------|-----------------------------|
G|-----------------------------|-----------------------------|
D|-----------------------------|--------------------------13-|
A|--6--6-6/9-9--/11-11-12/11/9-|-6--6-6/9-9--/11-11-12/11-11-|
E|--4--4-4/7-7--/9--9--10/9| /7-|-4--4-4/7-7--/9--9--10/9-----|


Scary circus-sounding portion
                                1st time      2nd time
E|---------------------------|-------------|-------------|
B|---------------------------|-------------|-------------|
G|------------8--------8-----|------10-12--|-------------|
D|--------------9--/11---11--|--/13--------|--11--10--9--|
A|--/6~---/10----------------|-------------|--9---8---7--|
E|---------------------------|-------------|-------------|
Otros videos de esta canción
    0 exhibiciones
      • ½ Tono
      • A
      • Bb
      • B
      • C
      • Db
      • D
      • Eb
      • E
      • F
      • F#
      • G
      • Ab
    • Agregar a la lista

    Afinação da cifra

    Afinador online

      Ops (: Contenido disponible solo en portugués.
      OK