Cifra Club

Dream Is Dead

Type O Negative

Cifrado: Principal (guitarra y guitarra eléctrica)
Selo Cifra Club: esta cifra foi revisada para atender aos critérios oficiais da nossa Equipe de Qualidade.
tono: Bm
Intro
E|----------------------------------------|
B|----------------------------------------|
G|----------------------------------------|
D|--------9^8^7---------7----7------------|
A|------9------------/9---/9---0-4(b| end)--|
E|--5/7----------0-0----------------------|

Verse 1
Champagne glass of blood and wine...
E|----------------------|-------------------------|
B|-----------------<4>--|-12-12-12-12-12-12-12-12-|
G|----------------------|-11-11-11-11-11-11-11-11-|
D|--9----9/14----14/6---|-9--9--9--9--9--9--9--9--|
A|--7----7/12----12/4---|-------------------------|
E|----------------------|-------------------------|

Verse 2
(eBow or sustainer with light wah)
Candles weeping, waxing tears...
E|-------------------------|-------------------------|
B|-------------------------|-12-12-12-12-12-12-12-12-|
G|-/9---9/13---13/4---4/14-|-11-11-11-11-11-11-11-11-|
D|-------------------------|-9--9--9--9--9--9--9--9--|
A|-------------------------|-------------------------|
E|-------------------------|-------------------------|

E|----------------------------------------|
B|----------------------------------------|
G|----------------------------------------|
D|--------9^8^7---------7----7------------|
A|------9------------/9---/9---0-4(b| end)--|
E|--5/7----------0-0----------------------|

Verse 3
Arrows fester in my heart, each memory another dart...
E|----------------------|--------|
B|-----------------<4>--|--12----|
G|----------------------|--11----|
D|--9----9/14----14/6---|--9-----|
A|--7----7/12----12/4---|--------|
E|----------------------|--------|

Verse 4
Love and death both colored red...
E|-------------------------|-------------------------|
B|-------------------------|-12-12-12-12-12-12-12-12-|
G|-/9---9/13---13/4---4/14-|-11-11-11-11-11-11-11-11-|
D|-------------------------|-9--9--9--9--9--9--9--9--|
A|-------------------------|-------------------------|
E|-------------------------|-------------------------|

Another lonely Valentine's Day...
E|-------------------------------|
B|-------------------------------|
G|-------------------------------|
D|--4----4-6----6/9-9----10--11--|
A|--4----4-6----6/9-9----8---9---|
E|--2----2-4----4/7-7------------|

Nobody will break your fall...
E|--------------------------------------|---------------------|
B|--------------------------------------|---------------------|
G|--------------------------------------|---------------------|
D|--------------------------------------|-9-8-7---------------|
A|-5--5555-5/7-7-77-7/9-9---5^4^5^4^5/7-|-------9-8-7/5-------|
E|-3--3333-3/5-5-55-5/7-7-xx------------|---------------5-4-3-|
       ****       **       **

Breakdown Lead
There are two different ending pinch harmonics/sustainer effects
E|------15-------10-------10----10------10--------|
B|--/12----12-10----10----------------------------|
G|---------------------12----12----12-9---9/7^9v--|
D|------------------------------------------------|
A|------------------------------------------------|
E|------------------------------------------------|

Breakdown Rhythm
The last chord is the wah-wah effect from the verses
E|--------------------------<7>-------|
B|------------------------------12----|
G|------------------------------11----|
D|--9----9/7----7/6----6/7------9-----|
A|--7----7/5----5/4----4/5------------|
E|------------------------------------|

Nobody will break your fall...
E|--------------------------------------|---------------------|
B|--------------------------------------|---------------------|
G|--------------------------------------|---------------------|
D|--------------------------------------|-9-8-7---------------|
A|-5--5555-5/7-7-77-7/9-9---5^4^5^4^5/7-|-------9-8-7/5-------|
E|-3--3333-3/5-5-55-5/7-7-xx------------|---------------5-4-3-|
       ****       **       **

Play intro again
E|-----------------------------------------|
B|-----------------------------------------|
G|-----------------------------------------|
D|--------9^8^7---------7-----7------------|
A|------9------------/9---/9----0-4(b| end)--|
E|--5/7----------0-0-----------------------|

Another lonely Valentine's Day...
E|-------------------------------|
B|-------------------------------|
G|-------------------------------|
D|--4----4-6----6/9-9----10--11--|
A|--4----4-6----6/9-9----8---9---|
E|--2----2-4----4/7-7------------|

Outro Lead
The dream is dead...
E|-----------------------------------------------------------|
B|--11b----11b----11b-14-12-11^12^11---11^12^11--11-9---11b--|
G|------11-----11-------------------11---------11-----11-----|
D|-----------------------------------------------------------|
A|-----------------------------------------------------------|
E|-----------------------------------------------------------|

E|--18b----18b----18b-21-19-18^19^18--18^19^18-------------|
B|-----19-----19--------------------19--------19-17-16-----|
G|-----------------------------------------------------16--|
D|---------------------------------------------------------|
A|---------------------------------------------------------|
E|---------------------------------------------------------|

Outro Rhythm
E|-------------------------------|
B|-------------------------------|
G|-------------------------------|
D|--4----4-6----6/9-9----10--11--|
A|--4----4-6----6/9-9----8---9---|
E|--2----2-4----4/7-7------------|
Otros videos de esta canción
    4 exhibiciones
      • ½ Tono
      • Am
      • Bbm
      • Bm
      • Cm
      • C#m
      • Dm
      • Ebm
      • Em
      • Fm
      • F#m
      • Gm
      • G#m
    • Agregar a la lista

    Afinação da cifra

    Afinador online

      Ops (: Contenido disponible solo en portugués.
      OK