Cifra Club

Drunk In Paris

Type O Negative

Cifrado: Principal (guitarra y guitarra eléctrica)
Selo Cifra Club: esta cifra foi revisada para atender aos critérios oficiais da nossa Equipe de Qualidade.
tono: Db
[Main Riff]
E|---------------------------------------------------------------------------|
B|---------------------------------------------------------------------------|
G|---------------------------------------------------------------------------|
D|------9~-------------------------------------------------------------------|
A|-7~---7~---9~--------------------------------------------------------------|
E|-5~--------7~--------------------------------------------------------------|

E|---------------------------------------------------------------------------|
B|---------------------------------------------------------------------------|
G|---------------------------------------------------------------------------|
D|-11~--11-10~--9~-9-8--7~-10~-------9~--------------------------------------|
A|--9~---9--8~--7~-7-6--5~--8~--7~---7~---9~---------------------------------|
E|------------------------------5~--------7~---------------------------------|

E|---------------------------------------------------------------------------|
B|---------------------------------------------------------------------------|
G|---------------------------------------------------------------------------|
D|------9~-------------------------------------------------------------------|
A|-7~---7~---9~--------------------------------------------------------------|
E|-5~--------7~--------------------------------------------------------------|

E|---------------------------------------------------------------------------|
B|---------------------------------------------------------------------------|
G|---------------------------------------------------------------------------|
D|-11~--11-10~--9~-9-8--7~-10~-------9~--------------------------------------|
A|--9~---9--8~--7~-7-6--5~--8~--7~---7~---9~---------------------------------|
E|------------------------------5~--------7~---------------------------------|

E|---------------------------------------------------------------------------|
B|---------------------------------------------------------------------------|
G|---------------------------------------------------------------------------|
D|------9~-------------------------------------------------------------------|
A|-7~---7~---9~--------------------------------------------------------------|
E|-5~--------7~--------------------------------------------------------------|

E|---------------------------------------------------------------------------|
B|---------------------------------------------------------------------------|
G|---------------------------------------------------------------------------|
D|-11~--11-10~--9~-9-8--7~-10~-------9~--------------------------------------|
A|--9~---9--8~--7~-7-6--5~--8~--7~---7~---9~---------------------------------|
E|------------------------------5~--------7~---------------------------------|

E|---------------------------------------------------------------------------|
B|---------------------------------------------------------------------------|
G|---------------------------------------------------------------------------|
D|------9~-------------------------------------------------------------------|
A|-7~---7~---9~--------------------------------------------------------------|
E|-5~--------7~--------------------------------------------------------------|

E|---------------------------------------------------------------------------|
B|---------------------------------------------------------------------------|
G|---------------------------------------------------------------------------|
D|-11~--11-10~--9~-9-8--7~-10~-------9~--------------------------------------|
A|--9~---9--8~--7~-7-6--5~--8~--7~---7~---9~---------------------------------|
E|------------------------------5~--------7~---------------------------------|

[Outro] Fast strumming in the end
E|---------------------------------------------------------------------------|
B|---------------------------------------------------------------------------|
G|---------------------------------------------------------------------------|
D|---------------------------------------------------------------------------|
A|--9--9--9--9--9--9--9--9--9--9---------------------------------------------|
E|--7--7--7--7--7--7--7--7--7--7---------------------------------------------|
Otros videos de esta canción
    0 exhibiciones
      • ½ Tono
      • A
      • Bb
      • B
      • C
      • Db
      • D
      • Eb
      • E
      • F
      • F#
      • G
      • Ab
    • Agregar a la lista

    Afinação da cifra

    Afinador online

      Ops (: Contenido disponible solo en portugués.
      OK