Cifra Club

How Could She

Type O Negative

Cifrado: Principal (guitarra y guitarra eléctrica)
Selo Cifra Club: esta cifra foi revisada para atender aos critérios oficiais da nossa Equipe de Qualidade.
tono: A
E|---------------------------------------------------------------------------|
B|---------------------------------------------------------------------------|
G|---------------------------------------------------------------------------|
D|----5-5/-X-X---5-5/-X-X---5-5/-X-X-7/8-8/9-9/12-12/14----------------------|
A|--0------X-X-0------X-X-0------X-X-5/6-6/7-7/10-10/12----------------------| (x4)
E|---------------------------------------------------------------------------|
     *          *          *
[Chorus]

E|---------------------------------------------------------------------------|
B|---------------------------------------------------------------------------|
G|---------------------------------------------------------------------------|
D|-10--10-10-10--10-10-10-10-10-10-10--12--12-12-12--12-12-12-12-12-12-12----|
A|--8---8--8--8---8--8--8--7--7--7--7--10--10-10-10--10-10-10--9--9--9--9----|
E|---------------------------------------------------------------------------|

E|---------------------------------------------------------------------------|
B|---------------------------------------------------------------------------|
G|---------------------------------------------------------------------------|
D|-10--10-10-10--10-10-10-10-10-10-10----------------------------------------|
A|--8---8--8--8---8--8--8--7--7--7--7--5~---7~-7-6-5--3-3---3h5/7-5~---------|
E|----------------------------------------5---------------5------------------|

E|---------------------------------------------------------------------------|
B|---------------------------------------------------------------------------|
G|---------------------------------------------------------------------------|
D|-10--10-10-10--10-10-10-10-10-10-10--12--12-12-12--12-12-12-12-12-12-12----|
A|--8---8--8--8---8--8--8--7--7--7--7--10--10-10-10--10-10-10--9--9--9--9----|
E|---------------------------------------------------------------------------|

E|---------------------------------------------------------------------------|
B|---------------------------------------------------------------------------|
G|---------------------------------------------------------------------------|
D|-10--10-10-10--10-10-10-10-10-10-10----------------------------------------|
A|--8---8--8--8---8--8--8--7--7--7--7--5~---7~-7-6-5--3-3---3h5/7-5~-5p3h5/7-|
E|----------------------------------------5---------------5------------------|

E|---------------------------------------------------------------------------|
B|---------------------------------------------------------------------------|
G|---------------------------------------------------------------------------|
D|-7~----9~-9-8-7------------------------------------------------------------|
A|-5~-7--7~-7-6-5-10-10-7-10/12-14-12----------------------------------------|
E|----5------------8--8-5--8/10-12-10----------------------------------------|

[Verse]

E|---------------------------------------------------------------------------|
B|---------------------------------------------------------------------------|
G|---------------------------------------------------------------------------|
D|----5-5/-X-X---5-5/-X-X---5-5/-X-X-7/8-8/9-9/12-12/14----------------------|
A|--0------X-X-0------X-X-0------X-X-5/6-6/7-7/10-10/12----------------------| (x2)
E|---------------------------------------------------------------------------|
     *          *          *
[Chorus]

E|---------------------------------------------------------------------------|
B|---------------------------------------------------------------------------|
G|---------------------------------------------------------------------------|
D|-10--10-10-10--10-10-10-10-10-10-10--12--12-12-12--12-12-12-12-12-12-12----|
A|--8---8--8--8---8--8--8--7--7--7--7--10--10-10-10--10-10-10--9--9--9--9----|
E|---------------------------------------------------------------------------|

E|---------------------------------------------------------------------------|
B|---------------------------------------------------------------------------|
G|---------------------------------------------------------------------------|
D|-10--10-10-10--10-10-10-10-10-10-10----------------------------------------|
A|--8---8--8--8---8--8--8--7--7--7--7--5~---7~-7-6-5--3-3---3h5/7-5~---------|
E|----------------------------------------5---------------5------------------|

E|---------------------------------------------------------------------------|
B|---------------------------------------------------------------------------|
G|---------------------------------------------------------------------------|
D|-10--10-10-10--10-10-10-10-10-10-10--12--12-12-12--12-12-12-12-12-12-12----|
A|--8---8--8--8---8--8--8--7--7--7--7--10--10-10-10--10-10-10--9--9--9--9----|
E|---------------------------------------------------------------------------|

E|---------------------------------------------------------------------------|
B|---------------------------------------------------------------------------|
G|---------------------------------------------------------------------------|
D|-10--10-10-10--10-10-10-10-10-10-10----------------------------------------|
A|--8---8--8--8---8--8--8--7--7--7--7--5~---7~-7-6-5--3-3---3h5/7-5~-5p3h5/7-|
E|----------------------------------------5---------------5------------------|

E|---------------------------------------------------------------------------|
B|---------------------------------------------------------------------------|
G|---------------------------------------------------------------------------|
D|-7~----9~-9-8-7------------------------------------------------------------|
A|-5~-7--7~-7-6-5-10-10-7-10/12-14-12----------------------------------------|
E|----5------------8--8-5--8/10-12-10----------------------------------------|

[Post-Chorus]

E|---------------------------------------------------------------------------|
B|---------------------------------------------------------------------------|
G|---------------------------------------------------------------------------|
D|-9--9--9--9/7--7--7--7--7--9--9--9--9/7--7--7--7--7------------------------|
A|-7--7--7--7/5--5--5--5--5--7--7--7--7/5--5--5--5--5------------------------|
E|---------------------------------------------------------------------------|

E|---------------------------------------------------------------------------|
B|---------------------------------------------------------------------------|
G|---------------------------------------------------------------------------|
D|-9--9--9--9/7--7--7--7--7--9--9--9--9/7--7--7--7--7------------------------|
A|-7--7--7--7/5--5--5--5--5--7--7--7--7/5--5--5--5--5------------------------|
E|-7--7--7--7/5--5--5--5--5--7--7--7--7/5--5--5--5--5------------------------|

[Bridge Part I] Here is what is happening right now: Kenny is using whammy bar to pull notes down
                and up. I strongly recommend messing around with bends, it should be fine! :)

If you are lucky to have floyd rose, here it is: 
First note soluton: Pull a whammy bar up to grab a 14 fret note you and then go down.
Repeat for other notes. :)

E|---------------------------------------------------------------------------|
B|-13----12----11----10---9---8---7------------------------------------------|
G|----12----11----10----9---8---7--------------------------------------------|
D|---------------------------------------------------------------------------|
A|---------------------------------------------------------------------------|
E|---------------------------------------------------------------------------|

Percussion kicks in

First note soluton: Grab 9th fret and pull a whammy bar up to grab a 10th fret note.
Repeat until 16th fret note.. :)

15th soluton: Pull a whammy bar up to grab a 16 fret note you and then go down.
Repeat till the end. :)

E|---------------------------------------------------------------------------|
B|---------------------------------------------------------------------------|
G|---------------------------------------------------------------------------|
D|---------------------------------------------------------------------------|
A|-9---10----11----12----13----15----16----15----14----13----12----11----10--|
E|---9----10----11----12----14----15----16----15----14----13----12----11-----|

E|---------------------------------------------------------------------------|
B|---------------------------------------------------------------------------|
G|---------------------------------------------------------------------------|
D|---------------------------------------------------------------------------|
A|----9------------------4~--------------------------------------------------|
E|-10---9----------------2~--------------------------------------------------|

Applause moment

[Bridge Part II] Second and Fourth bridge are played by bass only, 
                 but You can easily play those on guitar.

E|---------------------------------------------------------------------------|
B|---------------------------------------------------------------------------|
G|---------------------------------------------------------------------------|
D|---------0------------0h2p0---------0--------------------------------------|
A|-2-2-2-0---0--2-2-2-0-------2-2-2-0---0--------0-2-4-----------------------| (x2)
E|-----------------------------------------0-2-3-----------------------------|

E|---------------------------------------------------------------------------|
B|---------------------------------------------------------------------------|
G|---------------------------------------------------------------------------|
D|---------4-7---------------------4-7--9-9-9-9~-----------------------------|
A|---5-7-8-------5-7-8-7-5---5-7-8-------------------------------------------| (x2)
E|-7-----------7-----------7-------------------------------------------------|

E|---------------------------------------------------------------------------|
B|---------------------------------------------------------------------------|
G|---------------------------------------------------------------------------|
D|---------0------------0h2p0---------0--------------------------------------|
A|-2-2-2-0---0--2-2-2-0-------2-2-2-0---0--------0-2-4-----------------------| (x2)
E|-----------------------------------------0-2-3-----------------------------|

E|---------------------------------------------------------------------------|
B|---------------------------------------------------------------------------|
G|---------------------------------------------------------------------------|
D|---------4-7---------------------4-7--9-9-9-9~-----------------------------|
A|---5-7-8-------5-7-8-7-5---5-7-8-------------------------------------------| (x2)
E|-7-----------7-----------7-------------------------------------------------|

E|---------------------------------------------------------------------------|
B|---------------------------------------------------------------------------|
G|---------------------------------------------------------------------------|
D|---------0------------0h2p0---------0--------------------------------------|
A|-2-2-2-0---0--2-2-2-0-------2-2-2-0---0--------0-2-4-----------------------| (x2)
E|-----------------------------------------0-2-3-----------------------------|

[Verse]

E|---------------------------------------------------------------------------|
B|---------------------------------------------------------------------------|
G|---------------------------------------------------------------------------|
D|----5-5/-X-X---5-5/-X-X---5-5/-X-X-7/8-8/9-9/12-12/14----------------------|
A|--0------X-X-0------X-X-0------X-X-5/6-6/7-7/10-10/12----------------------| (x4)
E|---------------------------------------------------------------------------|
     *          *          *
[Chorus]

E|---------------------------------------------------------------------------|
B|---------------------------------------------------------------------------|
G|---------------------------------------------------------------------------|
D|-10--10-10-10--10-10-10-10-10-10-10--12--12-12-12--12-12-12-12-12-12-12----|
A|--8---8--8--8---8--8--8--7--7--7--7--10--10-10-10--10-10-10--9--9--9--9----|
E|---------------------------------------------------------------------------|

E|---------------------------------------------------------------------------|
B|---------------------------------------------------------------------------|
G|---------------------------------------------------------------------------|
D|-10--10-10-10--10-10-10-10-10-10-10----------------------------------------|
A|--8---8--8--8---8--8--8--7--7--7--7--5~---7~-7-6-5--3-3---3h5/7-5~---------|
E|----------------------------------------5---------------5------------------|

E|---------------------------------------------------------------------------|
B|---------------------------------------------------------------------------|
G|---------------------------------------------------------------------------|
D|-10--10-10-10--10-10-10-10-10-10-10--12--12-12-12--12-12-12-12-12-12-12----|
A|--8---8--8--8---8--8--8--7--7--7--7--10--10-10-10--10-10-10--9--9--9--9----|
E|---------------------------------------------------------------------------|

E|---------------------------------------------------------------------------|
B|---------------------------------------------------------------------------|
G|---------------------------------------------------------------------------|
D|-10--10-10-10--10-10-10-10-10-10-10----------------------------------------|
A|--8---8--8--8---8--8--8--7--7--7--7--5~---7~-7-6-5--3-3---3h5/7-5~-5p3h5/7-|
E|----------------------------------------5---------------5------------------|

E|---------------------------------------------------------------------------|
B|---------------------------------------------------------------------------|
G|---------------------------------------------------------------------------|
D|-7~----9~-9-8-7------------------------------------------------------------|
A|-5~-7--7~-7-6-5-10-10-7-10/12-14-12----------------------------------------|
E|----5------------8--8-5--8/10-12-10----------------------------------------|

[Post-Chorus]

E|---------------------------------------------------------------------------|
B|---------------------------------------------------------------------------|
G|---------------------------------------------------------------------------|
D|-9--9--9--9/7--7--7--7--7--9--9--9--9/7--7--7--7--7------------------------|
A|-7--7--7--7/5--5--5--5--5--7--7--7--7/5--5--5--5--5------------------------|
E|---------------------------------------------------------------------------|

E|---------------------------------------------------------------------------|
B|---------------------------------------------------------------------------|
G|---------------------------------------------------------------------------|
D|-9--9--9--9/7--7--7--7--7--9--9--9--9/7--7-7-7-7-7-7-7---------------------|
A|-7--7--7--7/5--5--5--5--5--7--7--7--7/5--5-5-5-5-5-5-5-S| LIDE---------------|
E|-7--7--7--7/5--5--5--5--5--7--7--7--7/5------------------------------------|

[Outro]

E|-------------------------------------------------------------------------------|
B|-------------------------------------------------------------------------------|
G|-------------------------------------------------------------------------------|
A |11-11-11-11-11-11-11-11-11-11-11-11-11-11-11-11-9-9-9-9-9-9-9-9-9-9-9-9-9-9-9-9|
E|-9--9--9--9--9--9--9--9--9--9--9--9--9--9--9--9-7-7-7-7-7-7-7-7-7-7-7-7-7-7-7-7| (x4)
B|-------------------------------------------------------------------------------|

E|-------------------------------------------------------------------------------|
B|-------------------------------------------------------------------------------|
G|-------------------------------------------------------------------------------|
A |11-11-11-11-11-11-11-11-11-11-11-11-11-11-11-11-9-9-9-9-9-9-9-9-9-9-9-9-9------|
E |-9--9--9--9--9--9--9--9--9--9--9--9--9--9--9--9-7-7-7-7-7-7-7-7-7-7-7-7-7-SLIDE| 
B |-------------------------------------------------------------------------------|

E|---------------------------------------------------------------------------|
B|---------------------------------------------------------------------------|
G|---------------------------------------------------------------------------|
D|---------------------------------------------------------------------------|
A|--5~---7~-7-6-5--3-3---3h5/7-5~-5p0-5p0------------------------------------|
E|-----5---------------5-----------------------------------------------------|

E|---------------------------------------------------------------------------|
B|---------------------------------------------------------------------------|
G|---------------------------------------------------------------------------|
D|-7~----9~-9-8-7------------------------------------------------------------|
A|-5~-7--7~-7-6-5-10-10-7-10/12-14-12--S| LIDE---------------------------------|
E|----5------------8--8-5--8/10-12-10----------------------------------------|

E|---------------------------------------------------------------------------|
B|---------------------------------------------------------------------------|
G|---------------------------------------------------------------------------|
D|---------------------------------------------------------------------------|
A|--5~---7~-7-6-5--3-3---3h5/7-5~-5p0-5p0------------------------------------|
E|-----5---------------5-----------------------------------------------------|

E|---------------------------------------------------------------------------|
B|---------------------------------------------------------------------------|
G|---------------------------------------------------------------------------|
D|-7~----9~-9-8-7------------------------------------------------------------|
A|-5~-7--7~-7-6-5-10-10-7-10/12-14-12--S| LIDE---------------------------------|
E|----5------------8--8-5--8/10-12-10----------------------------------------|

E|---------------------------------------------------------------------------|
B|---------------------------------------------------------------------------|
G|---------------------------------------------------------------------------|
D|---------------------------------------------------------------------------|
A|--5~---7~-7-6-5--3-3---3h5/7-5~-5p0-5p0------------------------------------|
E|-----5---------------5-----------------------------------------------------|

E|---------------------------------------------------------------------------|
B|---------------------------------------------------------------------------|
G|---------------------------------------------------------------------------|
D|-7~----9~-9-8-7------------------------------------------------------------|
A|-5~-7--7~-7-6-5-10-10-7-10/12-14-12--S| LIDE---------------------------------|
E|----5------------8--8-5--8/10-12-10----------------------------------------|

E|---------------------------------------------------------------------------|
B|---------------------------------------------------------------------------|
G|---------------------------------------------------------------------------|
D|---------------------------------------------------------------------------|
A|--5~---7~-7-6-5--3-3---3h5/7-5~-5p0-5p0------------------------------------|
E|-----5---------------5-----------------------------------------------------|

E|---------------------------------------------------------------------------|
B|---------------------------------------------------------------------------|
G|---------------------------------------------------------------------------|
D|-7~----9~-9-8-7------------------------------------------------------------|
A|-5~-7--7~-7-6-5-10-10-7-10/12-14-12--S| LIDE---------------------------------|
E|----5------------8--8-5--8/10-12-10----------------------------------------|

************************************

| x   Dead note
| p   Pull-off
| /   Slide up
| ~   Hold Note
| **  Palm mute
Otros videos de esta canción
    6 exhibiciones
      • ½ Tono
      • A
      • Bb
      • B
      • C
      • Db
      • D
      • Eb
      • E
      • F
      • F#
      • G
      • Ab
    • Agregar a la lista

    Afinação da cifra

    Afinador online

      Ops (: Contenido disponible solo en portugués.
      OK