Cifra Club

I Like Goils

Type O Negative

Cifrado: Principal (guitarra y guitarra eléctrica)
Selo Cifra Club: esta cifra foi revisada para atender aos critérios oficiais da nossa Equipe de Qualidade.
tono: F#m
E|---------------------------------------------------------------------------|
B|---------------------------------------------------------------------------|
G|---------------------------------------------------------------------------|
D|-11-11-11-11-11-11-11-11-14-14-14-14-14-14-14-14-16-16-16-16-16-16-16-16---|
A|--9--9--9--9--9--9--9--9-12-12-12-12-12-12-12-12-14-14-14-14-14-14-14-14---| (x2)
E|---------------------------------------------------------------------------|

E|---------------------------------------------------------------------------|
B|---------------------------------------------------------------------------|
G|---------------------------------------------------------------------------|
D|-9-9-9-9-9-9-9-9-14-14-14-14-14-14-14-14-7-7-7-7-7-7-7-7-------------------|
A|-7-7-7-7-7-7-7-7-12-12-12-12-12-12-12-12-5-5-5-5-5-5-5-5-7-7-7-7-7-7-7-7---|
E|---------------------------------------------------------5-5-5-5-5-5-5-5---|
                                                            ***************
E|---------------------------------------------------------------------------|
B|---------------------------------------------------------------------------|
G|---------------------------------------------------------------------------|
D|-9-9-9-9-9-9-9-9-----------------7-7-7-7-7-7-7-7---------------------------|
A|-7-7-7-7-7-7-7-7-7-7-7-7-7-7-7-7-5-5-5-5-5-5-5-5-7-7-7-7-7-7-7-7-----------| (x3)
E|-----------------5-5-5-5-5-5-5-5-----------------5-5-5-5-5-5-5-5-----------|
                    ***************                 ***************
[Chorus]

E|---------------------------------------------------------------------------|
B|---------------------------------------------------------------------------|
G|---------------------------------------------------------------------------|
D|-6-6-6-6-6-6-6-6-4-4-4-4-4-4-4-4-6-6-6-6-6-6-6-6-2-2-2-2-4-4-4-4-----------|
A|-4-4-4-4-4-4-4-4-2-2-2-2-2-2-2-2-4-4-4-4-4-4-4-4-0-0-0-0-2-2-2-2-----------|
E|---------------------------------------------------------------------------|

[Verse]

E|---------------------------------------------------------------------------|
B|---------------------------------------------------------------------------|
G|---------------------------------------------------------------------------|
D|-11-11-11-11-11-11-11-11-14-14-14-14-14-14-14-14-16-16-16-16-16-16-16-16---|
A|--9--9--9--9--9--9--9--9-12-12-12-12-12-12-12-12-14-14-14-14-14-14-14-14---| (x2)
E|---------------------------------------------------------------------------|

E|---------------------------------------------------------------------------|
B|---------------------------------------------------------------------------|
G|---------------------------------------------------------------------------|
D|-9-9-9-9-9-9-9-9-----------------7-7-7-7-7-7-7-7---------------------------|
A|-7-7-7-7-7-7-7-7-7-7-7-7-7-7-7-7-5-5-5-5-5-5-5-5-7-7-7-7-7-7-7-7-----------| (x4)
E|-----------------5-5-5-5-5-5-5-5-----------------5-5-5-5-5-5-5-5-----------|
                    ***************                 ***************
[Chorus]

E|---------------------------------------------------------------------------|
B|---------------------------------------------------------------------------|
G|---------------------------------------------------------------------------|
D|-6-6-6-6-6-6-6-6-4-4-4-4-4-4-4-4-6-6-6-6-6-6-6-6-2-2-2-2-4-4-4-4-----------|
A|-4-4-4-4-4-4-4-4-2-2-2-2-2-2-2-2-4-4-4-4-4-4-4-4-0-0-0-0-2-2-2-2-----------|
E|---------------------------------------------------------------------------|

[Verse]

E|---------------------------------------------------------------------------|
B|---------------------------------------------------------------------------|
G|---------------------------------------------------------------------------|
D|-11-11-11-11-11-11-11-11-14-14-14-14-14-14-14-14-16-16-16-16-16-16-16-16---|
A|--9--9--9--9--9--9--9--9-12-12-12-12-12-12-12-12-14-14-14-14-14-14-14-14---| (x2)
E|---------------------------------------------------------------------------|

E|---------------------------------------------------------------------------|
B|---------------------------------------------------------------------------|
G|---------------------------------------------------------------------------|
D|-9-9-9-9-9-9-9-9-----------------7-7-7-7-7-7-7-7---------------------------|
A|-7-7-7-7-7-7-7-7-7-7-7-7-7-7-7-7-5-5-5-5-5-5-5-5-7-7-7-7-7-7-7-7-----------| (x2)
E|-----------------5-5-5-5-5-5-5-5-----------------5-5-5-5-5-5-5-5-----------|
                    ***************                 ***************
E|---------------------------------------------------------------------------|
B|---------------------------------------------------------------------------|
G|---------------------------------------------------------------------------|
D|-9~--S| LIDE-----------------------------------------------------------------|
A|-7~------------------------------------------------------------------------|
E|---------------------------------------------------------------------------|

BDA K Vocals and Keys

E|---------------------------------------------------------------------------|
B|---------------------------------------------------------------------------|
G|---------------------------------------------------------------------------|
D|-9-9-9-9-9-9-9-9-----------------7-7-7-7-7-7-7-7---------------------------|
A|-7-7-7-7-7-7-7-7-7-7-7-7-7-7-7-7-5-5-5-5-5-5-5-5-7-7-7-7-7-7-7-7-----------| (x3)
E|-----------------5-5-5-5-5-5-5-5-----------------5-5-5-5-5-5-5-5-----------|
                    ***************                 ***************
[Chorus]
E|---------------------------------------------------------------------------|
B|---------------------------------------------------------------------------|
G|---------------------------------------------------------------------------|
D|-6-6-6-6-6-6-6-6-4-4-4-4-4-4-4-4-6-6-6-6-6-6-6-6-2-2-2-2-4-4-4-4-----------|
A|-4-4-4-4-4-4-4-4-2-2-2-2-2-2-2-2-4-4-4-4-4-4-4-4-0-0-0-0-2-2-2-2-----------| (x2)
E|---------------------------------------------------------------------------|

E|---------------------------------------------------------------------------|
B|---------------------------------------------------------------------------|
G|---------------------------------------------------------------------------|
D|-6~--S| LIDE-----------------------------------------------------------------|
A|-4~------------------------------------------------------------------------|
E|---------------------------------------------------------------------------|


************************************

| **  Palm Mute
| ~   Hold Note
| SLIDE Plectrum Slide
Otros videos de esta canción
    3 exhibiciones
      • ½ Tono
      • Am
      • Bbm
      • Bm
      • Cm
      • C#m
      • Dm
      • Ebm
      • Em
      • Fm
      • F#m
      • Gm
      • G#m
    • Agregar a la lista

    Afinação da cifra

    Afinador online

      Ops (: Contenido disponible solo en portugués.
      OK