Cifra Club

My Girlfriends Girlfriend

Type O Negative

Cifrado: Principal (guitarra y guitarra eléctrica)
Selo Cifra Club: esta cifra foi revisada para atender aos critérios oficiais da nossa Equipe de Qualidade.
tono: Em
E|-----------------------------------------------------------|
B|-----------------------------------------------------------|
G|------------------------------7--7---7---------------------|
D|-7--7---7----7--7---0--0------7--7---7-----0---0----0---0--|
A|-7--7---7----8--8---7--7------5--5---5-----8---8\-/10--10--|
E|-5--5---5--0------0---------0-----------0----0---0---------|
               .      .         .           .    .   .


{ Watch the sus2 chord at the end of the 1st 3 bars! }
[verse]           { 3 times }|
E|----------------------------|--------------------------|
B|----------------------------|--------------------------|
G|----------------------12--\-|----------------5/9-5--7\-|
D|----------------------10--\-|-5--5--5-5-5----5/9-5--7\-|
A|-7----x-x-x-x-x-x-x-x--8--\-|-3--3--3-2-0-5--3/7-3--5\-|
E|-5----x-x-x-x-x-x-x-x-------|-------------3------------|
       . . . . . . . .

[Chorus]
{ The first 8 chords look like the Batman theme! }
{ I think this is better than my previous posting. }
E|-----------------------------------------|
B|-----------------------------------------|
G|-----------------------------------------|
D|-----------------------------------------|
A|-9-9-8-8-7-7-9-9-12-12-12-14----14-12-14-|
E|-7-7-7-7-7-7-7-7-10--9-10-12----12-12-12-|
"My GF GF she looks like you."

[Solo]
{ Not really Van Halen stuff, but fine anyway. }
{ The first is a harmonic note, in case you don't know. }
E|-----------------------------------------------------------------|
B|-<5>---------------------s| low--------------------------12-12-----|
G|------------------------p| ull'of-----------------12-12-------14---|
D|-------------10-10------14p12------10---------10-----------------|
A|----/12-10h12-----12~-12-----15p12---12-10-12--------------------|
E|-----------------------------------------------------------------|

E|----------------------------------------------------15-----------|
B|-----17----16----15----13-----------------/17-17-17----17-15~----|
G|-/14----14----14----14-------16----14-12-------------------------|
D|--------------------------14----14-----------------------[s| crape]|
A|--------------------------------------------------------------x\-|
E|--------------------------------------------------------------x\-|


[bridge]
{ Clean guitar }
{ On the album this piece is actually played by keyb and bass,
  but when you're playing alone this will do fine. }
{ Kenny plays this live in another voicing, but this sounds nicer. } {
b=bass note; Pete plays this an octave lower on bass }
E|-------------------------------------------------------------------|
B|-------3--------------3--------------3------3---3-----3----------3-|
G|-----2----2---2-----2----2---2-----2----2-----------0----0-----0---|
D|---0--------0-----2--------2-----2------------0--------------0-----|
A|-0-----------------------------3----------3-------2----------------|
E|----------------0------------------------------------------3-------|
    b              b            b              b   b        b
"Her and me...."


[Stupid "in between"-riff]
{ First, 2 times played by bass, before the gtr comes in.}
E|-----------------------------|
B|-----------------------------|
G|-----------------------------|
D|-----------------------------|
A|---------9-9-8-8-7-7-5-7-5-4-|
E|-0-5/7-7---------------------|
Otros videos de esta canción
    3 exhibiciones
      • ½ Tono
      • Am
      • Bbm
      • Bm
      • Cm
      • C#m
      • Dm
      • Ebm
      • Em
      • Fm
      • F#m
      • Gm
      • G#m
    • Agregar a la lista

    Afinação da cifra

    Afinador online

      Ops (: Contenido disponible solo en portugués.
      OK