Cifra Club

Out Of The Fire

Type O Negative

Cifrado: Principal (guitarra y guitarra eléctrica)
Selo Cifra Club: esta cifra foi revisada para atender aos critérios oficiais da nossa Equipe de Qualidade.
tono: G
0:00 - 0:36
E|-------------------------------------------------------------------------|
B|-------------------------------------------------------------------------|
G|----S| ONG-STARTS-WITH-TUVAN-THROAT-B NGING/ORGAN--------------------------|
D|-------------------------------------------------------------------------|
A|-------------------------------------------------------------------------|
E|-------------------------------------------------------------------------|

0:36 FIRST VERSE 1x
E|-------------------------------------------------------------------------|
B|-------------------------------------------------------------------------|
G|----------5-----2----/7--7------------5-----2----/7--7-------------------|
D|----2-----5-----2----/5--4------2-----5-----2----/5--4-------------------|
A|----2-----3-----0---------------2-----3-----0----------------------------|
E|----0---------------------------0----------------------------------------|

0:58 VARIATION 1X
E|-------------------------------------------------------------------------|
B|-------------------------------------------------------------------------|
G|-------------------------------------------------------------------------|
D|---------------------5-5-5-5-5-5-5-5-2-2-2-2-2-2-2-2---------------------|
A|-----2-2-2-2-2-2-2-2-3-3-3-3-3-3-3-3-0-0-0-0-0-0-0-0-5-5-5-5-4-4-4-4-----|
E|-----0-0-0-0-0-0-0-0---------------------------------3-3-3-3-2-2-2-2-----|
     PMPMPMPMPMPMPMPMPMPMPMPMPMPMPMPMPMPMPMPMPMPMPMPMPMPMPMPMPMPMPMPM

1:09 CTND 1X
E|-------------------------------------------------------------------------|
B|-------------------------------------------------------------------------|
G|-------------------------------------------------------------------------|
D|---------------------5-5-5-5-5-5-5-5-2-2-2-2-2-2-2-2---------------------|
A|-----2-2-2-2-2-2-2-2-3-3-3-3-3-3-3-3-0-0-0-0-0-0-0-0-5-5-5-5-5-5-5-5-----|
E|-----0-0-0-0-0-0-0-0---------------------------------3-3-3-3-2-2-2-2-----|
     PMPMPMPMPMPMPMPMPMPMPMPMPMPMPMPMPMPMPMPMPMPMPMPM


0:37 FIRST G  O 
E|------------------------------------------------| USE-LOTS-OF-SLIDES-------|
B|----------------------------------------------------| AND-VIBRATO----------|
G|-------------------------------------------------------------------------|
D|--12/9-9~~~~~~~-/2--/4--/5--/7--2--14b16r14-/12~~~~~~~~------------------|
A|-----------------------------------| gradual-------------------------------|
E|------------------------------------b| end---------------------------------|
0:48  CTND
E|-------------------------------------------------------------------------|
B|-------------------------------------------------------------------------|
G|-------------------------------------------------------------------------|
D|--12/9-9~~~~~~~-/2--/4--/5--/7--2--14b16r14-/12~~~~~~~~12| gb13~~~~~~~~~~~~|
A|-----------------------------------| gradual-------------------------------|
E|------------------------------------b| end---------------------------------|



1:19 2ND VERSE 1x
E|-------------------------------------------------------------------------|
B|-------------------------------------------------------------------------|
G|----------5-----2----/7--7------------5-----2----/7--7-------------------|
D|----2-----5-----2----/5--4------2-----5-----2----/5--4-------------------|
A|----2-----3-----0---------------2-----3-----0----------------------------|
E|----0---------------------------0----------------------------------------|

1:41 VARIATION 1X
E|-------------------------------------------------------------------------|
B|-------------------------------------------------------------------------|
G|-------------------------------------------------------------------------|
D|---------------------5-5-5-5-5-5-5-5-2-2-2-2-2-2-2-2---------------------|
A|-----2-2-2-2-2-2-2-2-3-3-3-3-3-3-3-3-0-0-0-0-0-0-0-0-5-5-5-5-4-4-4-4-----|
E|-----0-0-0-0-0-0-0-0---------------------------------3-3-3-3-2-2-2-2-----|
     PMPMPMPMPMPMPMPMPMPMPMPMPMPMPMPMPMPMPMPMPMPMPMPMPMPMPMPMPMPMPMPM

1:52 CTND 1X
E|-------------------------------------------------------------------------|
B|-------------------------------------------------------------------------|
G|-------------------------------------------------------------------------|
D|---------------------5-5-5-5-5-5-5-5-2-2-2-2-2-2-2-2---------------------|
A|-----2-2-2-2-2-2-2-2-3-3-3-3-3-3-3-3-0-0-0-0-0-0-0-0-5-5-5-5-5-5-5-5-----|
E|-----0-0-0-0-0-0-0-0---------------------------------3-3-3-3-2-2-2-2-----|
     PMPMPMPMPMPMPMPMPMPMPMPMPMPMPMPMPMPMPMPMPMPMPMPM


1:20 SECOND G  O 
E|------------------------------------------------| USE-LOTS-OF-SLIDES-------|
B|----------------------------------------------------| AND-VIBRATO----------|
G|-------------------------------------------------------------------------|
D|--12/9-9~~~~~~~-/2--/4--/5--/7--2--14b16r14-/12~~~~~~~~------------------|
A|-----------------------------------| gradual-------------------------------|
E|------------------------------------b| end---------------------------------|
1:31  CTND
E|-------------------------------------------------------------------------|
B|-------------------------------------------------------------------------|
G|-------------------------------------------------------------------------|
D|--12/9-9~~~~~~~-/2--/4--/5--/7--2--14b16r14-/12~~~~~~~~12| gb13~~~~~~~~~~~~|
A|-----------------------------------| gradual-------------------------------|
E|------------------------------------b| end---------------------------------|


2:02 LEADING INTO BDA K
E|-------------------------------------------------------------------------|
B|-------------------------------| HOLD--------------------------------------|
G|--------6-------5-------4-------4----------------------------------------|
D|--------6-P| ICK--5-PICK--4-PICK--4----------------------------------------|
A|--------4-S| LIDE-3-SLIDE-2-SLIDE-2----------------------------------------|
E|-------------------------------------------------------------------------|

E|-------------------------------------------------------------------------|
B|-------------------------------------------------------------------------|
G|----------2| :13-TO-2:35--BDA K-WITH-CHOIR---------------------------------|
D|-------------------------------------------------------------------------|
A|-------------------------------------------------------------------------|
E|-------------------------------------------------------------------------|


2:35 D PEAT UNTIL END OF SONG
E|-------------------------------------------------------------------------|
B|-------------------------------------------------------------------------|
G|----------5-----2----/7--7-----------------------------------------------|
D|----2-----5-----2----/5--4-----------------------------------------------|
A|----2-----3-----0--------------------------------------------------------|
E|----0--------------------------------------------------------------------|

2:36 THIRD G  O 
E|------------------------------------------------| USE-LOTS-OF-SLIDES-------|
B|----------------------------------------------------| AND-VIBRATO----------|
G|-------------------------------------------------------------------------|
D|--12/9-9~~~~~~~-/2--/4--/5--/7--2--14b16r14-/12~~~~~~~~------------------|
A|-----------------------------------| gradual-------------------------------|
E|------------------------------------b| end---------------------------------|
2:46  CTND
E|-------------------------------------------------------------------------|
B|-------------------------------------------------------------------------|
G|-------------------------------------------------------------------------|
D|--12/9-9~~~~~~~-/2--/4--/5--/7--2--14b16r14-/12~~~~~~~~12| gb13~~~~~~~~~~~~|
A|-----------------------------------| gradual-------------------------------|
E|------------------------------------b| end---------------------------------|


2:57  SAME NOTES ONE OCTAVE UP
E|-------------------------------------------------------------------------|
B|--15/12-12~~~~~--/5--/7--/8--/10--5~~~~--/17b19r17-15~~~~----------------|
G|-------------------------------------------------------------------------|
D|-------------------------------------------------------------------------|
A|-------------------------------------------------------------------------|
E|-------------------------------------------------------------------------|
3:08 CTND
E|-------------------------------------------------------------------------|
B|--15/12-12~~~~~--/5--/7--/8--/10--5~~~~--/17b19r17-15~~~~~~~~~~~~~~~~~~~~|
G|-------------------------------------------------------------------------|
D|-------------------------------------------------------------------------|
A|-------------------------------------------------------------------------|
E|-------------------------------------------------------------------------|
Otros videos de esta canción
    9 exhibiciones
      • ½ Tono
      • A
      • Bb
      • B
      • C
      • Db
      • D
      • Eb
      • E
      • F
      • F#
      • G
      • Ab
    • Agregar a la lista

    Afinação da cifra

    Afinador online

      Ops (: Contenido disponible solo en portugués.
      OK