Cifra Club

Red Water Christmas Mourning

Type O Negative

Cifrado: Principal (guitarra y guitarra eléctrica)
Selo Cifra Club: esta cifra foi revisada para atender aos critérios oficiais da nossa Equipe de Qualidade.
tono: E
{ Keyboard intro (high = horn-section; low = windvox }  |dist.gtr.|
E|-10-10----9--9----7--7----9--5--------------------7----|---------|
B|----------------------------------7--7---------5-------|---------|
G|-----7-------6-------4-------2-------------------------|---------|
D|-----------------------| x\ gtr. -----4-------2---------|-----4---|
A|-----------------------| x\ scratch ---------------0----|-----4---|
E|-------------------------------------------------------|---5---/\|
                                                            .
{ Verse-riff
  High notes = keyb. (on record 2 octaves higher)
  low notes = gtr. (the bend should be quick =>
  2 semitones - release - 1 semitone - release) }
E|-------------5-5-5-9-9-9-9-9-9-5-5---------------|
B|-0-0-0-7-7-7-----------------------7-7-7-7-7-7-0-|
G|-------------------------------------------------|
D|-------------------------------------5--5b-4-----|
A|-9-----------------------7-----------5-(5b)4-----|
E|-7--------------------/\-5--------/\-3-(3b)2--/\-|


{ Chorus-riff
  repeat every chord 3 times }
E|-----------------------------------------------|
B|-------------------------11---------10---------|
G|-11-----------9----------11---------11---------|
D|-11----------11----------11---------11---------|
A|--9-----------7----------------------0---------|
E|--9-----------0----------11---------12---------|
"Oh mistletoe..."


{ Bass-riff arr. for gtr. (during bells) }
E|----------------------------------------------------------|
B|----------------------------------------------------------|
G|----------------------------------------------------------|
D|-------4h6p4------------4--6--------4h6p4-----------------|
A|-------------6-------4--------------------4--6--6--4b6r4--|
E|-4--4----------2--2-----------0--0------------------------|


{ solo line at the end of the song }
|                                   |          1.2.3.|          4.|
E|-12b14--------21-19-18h19p18~--19~-|-12b14(4| times)-|-<5>-<5>b---|
B|---s| low----------------------------|----------------|------------|
G|---b| end----------------------------|----------------|--- bend ---|
D|-----------------------------------|----------------|--| behind --|
A|-----------------------------------|----------------|---| neck ---|
E|-----------------------------------|----------------|------------| {
For the harmonic on the 5th fret of the high E string you can
  of course fret the 24th the normal way, its just that I only have a
  gtr. with 22 frets.
}
Otros videos de esta canción
    1 exhibiciones
      • ½ Tono
      • A
      • Bb
      • B
      • C
      • Db
      • D
      • Eb
      • E
      • F
      • F#
      • G
      • Ab
    • Agregar a la lista

    Afinação da cifra

    Afinador online

      Ops (: Contenido disponible solo en portugués.
      OK