Cifra Club

Set Me On Fire

Type O Negative

Cifrado: Principal (guitarra y guitarra eléctrica)
Selo Cifra Club: esta cifra foi revisada para atender aos critérios oficiais da nossa Equipe de Qualidade.
tono: D
E|---------------------------------------------------------------------------|
B|---------------------------------------------------------------------------|
G|---------------------------------------------------------------------------|
D|-------------5--5-5-7--7-7-------------------------------------------------|
A|--7-7--7-7-7-3--3-3-5--5-5-------------------------------------------------| (x32)
E|--5-5--5-5-5---------------------------------------------------------------|

And there is a little Wah/Wah riff sometimes. It goes like this:

E|---------------------------------------------------------------------------|
B|---------------------------------------------------------------------------|
G|---------------------------------------------------------------------------|
D|-14--12--11----------------------------------------------------------------|
A|-------------12--10--12----------------------------------------------------| (x4)
B |---------------------------------------------------------------------------|
Otros videos de esta canción
    5 exhibiciones
      • ½ Tono
      • A
      • Bb
      • B
      • C
      • Db
      • D
      • Eb
      • E
      • F
      • F#
      • G
      • Ab
    • Agregar a la lista

    Afinação da cifra

    Afinador online

      Ops (: Contenido disponible solo en portugués.
      OK