Cifra Club

Thir13teen

Type O Negative

Cifrado: Principal (guitarra y guitarra eléctrica)
Selo Cifra Club: esta cifra foi revisada para atender aos critérios oficiais da nossa Equipe de Qualidade.
tono: E
Tuning: (B E A (G or F#) B)

          (bend the 3's a little bit up)
-------|---------------------------||
-------|---------------------------||
-------|---------------------------||
pick---|---------------------------||
scrape-|---------------------------||
+fdbk--|-0--3^-0--3^/6-5-3-/6-5-3--||

-----------------------------||
-----------------------------||
-----------------------------||
-----------------------------||
-----------/5-4-3-/5-4-3-----||
0--3^-0--3^------------------||

-----------------------------------||
-----------------------------------||
-----------------------------------||
------------------------4-5-6-7-8--||
2--/7-0--/5----/3-2~~~~-2-3-4-5-6--||
------------3----------------------||
                      pm. . . . .

And play everything again but with a differend ending:
   (bend the 3's a little bit up)
-----------------------------||
-----------------------------||
-----------------------------||
-----------------------------||
-----------------------------||
0--3^-0--3^/6-5-3-/6-5-3-----||

-----------------------------||
-----------------------------||
-----------------------------||
-----------------------------||
-----------/5-4-3-/5-4-3-----||
0--3^-0--3^------------------||

-----------------------------------||
-----------------------------------||
-----------------------------------||
------------------------4-5-6-7-8--||
2--/7-0--/5----/3-2~~~~-2-3-4-5-6--||
------------3----------------------||
                      pm. . . . .

Ending:       w/ fdbk
--------|-^----------------------------||
--------|-^----------------------------||
--------|-^----------------------------||
2x2x2x2-|-^----------------------------||
2x2x2x2-|-2-(let ring for a second)----||
0x0x0x0-|-0----------------------------||
heavy pm. .
Otros videos de esta canción
    25 exhibiciones
      • ½ Tono
      • A
      • Bb
      • B
      • C
      • Db
      • D
      • Eb
      • E
      • F
      • F#
      • G
      • Ab
    • Agregar a la lista

    Afinação da cifra

    Afinador online

      Ops (: Contenido disponible solo en portugués.
      OK