Cifra Club

Wolf Moon Including Zoanthropic Paranoia

Type O Negative

Cifrado: Principal (guitarra y guitarra eléctrica)
Selo Cifra Club: esta cifra foi revisada para atender aos critérios oficiais da nossa Equipe de Qualidade.
tono: F#
{ Keyboard intro }
E|--12b-|----21----21----21----21-------21----21----21----21-|
 bend |-19----19----19----21----21h22----22----22----21----|
E|1| |----------------------------------------------------|
 step |----------6----7-------9-----6----------------------|
E|------|--7--9----------------------------------------------|
B|------|-(0)------------------------------------------------|
      |                                                    |
E|----------------------------------------------------|
 bass |----------------------------------------------------|
 gtr  |---------------------7--\---------------------------|
E|-/2--------------7h9-------5--------------7b9r7-----|


{ Dist. gtr. }

{ notest in parenth.=keyb.            2nd time use lower }
E|-----------------------(17)------------(19)---------|
B|--------------(14)---------------------(17)---------|
G|/11-11-11-11-11\-6--6--6--/14-14-14-14-14\-6--6--6--|
D|/11-11-11-11-11\-6--6--6--/14-14-14-14-14\-6--6--6--|
      |/ 9--9--9--9--9\-4--4--4--/12-12-12-12-12\-4--4--4--|
E|----------------------------------------------------|

{ Verse riff }
E|----------------------------------------------------|
E|----------------------------------------------------|
E|----------------------------------------------------|
      |--4--4--4--4--4--6--6--6---2--2--2--2--2---6--6--6--|
      |--4--4--4--4--4--4--4--4---0--0--0--0--0---4--4--4--|
      |-(2)(2)(2)(2)(2)------------------------------------|
         .  .  .  .  .  .  .  .   .  .  .  .  .   .  .  .

{ Pre-chorus riff }
      |                   1.3.5.7.|                    2.6.|
E|---------------------------|------------------------|
B|---------------------------|------------------------|
G|---------------------------|------------------------|
D|--4-------4----4----4----7-|--------7----7--/-9-----|
A|--4-------4----4----2----7-|--------7----7--/-7-----|
E|--2-------2----2----0----5-|--------5----5--/-7-----|
       "Unholy water..."

      |                     4.|                     8.|
E|-----------------------|-----------------------|
B|-----------------------|-----------------------|
G|-----------------------|-----------------------|
D|---------7--9--10--11--|--------7--11--10--9---|
A|---------7--9--10--11--|--------7--11--10--9---|
E|---------5--7---8---9--|--------5---9---8--7---|
{ Chorus riff }
E|---------2--------------------------------------------------|
B|------------------------7--------------7--------------7-----|
G|-----4-----4--------9-----9--------7-----7--------6-----6---|
D|---4---4-----4----9---9-----9----7---7-----7----7---7-----7-|
A|-2------------/7---------------5--------------4-------------|
E|------------------------------------------------------------|
"Hey wolfmoon..."


{ Clean bass interlude }
E|-----------------------------------------------------------------|
B|-------7-----7---------2-----2---------9-----9--------11---------|
G|---------------------------------------------------------------7-|
D|-5---5---5-5---5-0---0---0-0---0-7---7---7-7---7-9---9-----7h9---|
"Beware.."


{ "Howl"-riff with dist.gtr (mostly palm-muted) }
E|-----------------------------------------------------------------|
B|-----------------------------------------------------------------|
G|-----------------------------------------------------------------|
|-7-7-7-7-7-7-7-6-6-6-6-6-6-6-6-9-9-9-9-9-9-9-9-9-9-9-9-9-9-9-9-9-|
|-7-7-7-7-7-7-7-7-7-7-7-7-7-7-7-9-9-9-9-9-9-9-9-7-7-7-7-7-7-7-7-7-|
|-5-5-5-5-5-5-5-4-4-4-4-4-4-4-4-7-7-7-7-7-7-7-7-9-9-9-9-9-9-9-9-9-|
"Beware..."
Otros videos de esta canción
    0 exhibiciones
      • ½ Tono
      • A
      • Bb
      • B
      • C
      • Db
      • D
      • Eb
      • E
      • F
      • F#
      • G
      • Ab
    • Agregar a la lista

    Afinação da cifra

    Afinador online

      Ops (: Contenido disponible solo en portugués.
      OK