Cifra Club

A Sort Of Homecoming Live

U2

Tablatura: Principal (guitarra)
Tom: G
Tabbed by: John Couillard
Email: *                                                
Tuning: Eb

Intro/Verse: ("And you know it's time to go..")

e|-----0-----0-----------0-----0-----------0-----0----------0----0----|
B|---3-----3-----3-----3-----3-----3-----3-----3-----3----3----3----3-|
G|-4-----4-----4-----2-----2-----2-----0-----0-----0----2----2----2---|
D|--------------------------------------------------------------------|
A|--------------------------------------------------------------------|
E|--------------------------------------------------------------------|

Verse: ("Ohhhh, Ohhhh")

           ( 2x )                                    ( 2x)
e|--------------------------7---------- -----10---10--10-----10---10--10---|
B|.*.|
G|.*.|
D|--/7-----7-----7-----------------7--- -----------------------------------|
A|-------------------------------------------------------------------------|
E|-------------------------------------------------------------------------|

Chords:
     Em     D                   
e|---0------0----|
B|---0------3----|
G|---0------2----|
D|---2------0----|
A|---------------|
E|---------------|

| /  slide up
| \  slide down
| h  hammer-on
| p  pull-off
| ~  vibrato
| +  harmonic
| x  Mute note
==========================================================
reproducciones 112
Acordes para:

    0 comentarios

    mostrar más comentarios

    ¿Conseguiste tocar?

    0 tocaron 0 aún no

    ¡Graba un vídeo tocando A Sort Of Homecoming Live y envianoslo!

    00:00 / 00:00
    outros vídeos desta música
    repetir qualidade Automático
    Outros vídeos desta música
    00:00 / 00:00
    Automático
    OK