Cifra Club

An Cat Dubh Intro

U2

Tablatura: Principal (guitarra)
Tom: Db (con acordes en la forma de D) Afinação: Eb Ab Db Gb Bb Eb
(intro)

E|--------------0------------------0--------|
B|----------------0------------------0------|
G|--2--3--2--3------2---2--3--2--3-----2----|
D|-0--0--0--0----------0--0--0--0-----------|
A|------------------------------------------|
E|------------------------------------------|

E|--------------0------------------0------------{7}--|
B|----------------0------------------0-------{7}-----|
G|--2--3--2--3------2---2--3--2--3-----2--{7}--------|
D|-0--0--0--0----------0--0--0--0--------------------|
A|---------------------------------------------------|
E|---------------------------------------------------|

D
Say goodnight
      C       G       D
She waits for me to turn out the light
D
Really still
      C        G        D
She waits to break my will.
D    C  G  D
Woah-oh-oh-oh
D    C  G  D
Woah-oh-oh-oh
         C          G         F
Yes, and I know the truth about you.
She cat.

E|--------------0------------------0------------{7}--|
B|----------------0------------------0-------{7}-----|
G|--2--3--2--3------2---2--3--2--3-----2--{7}--------|
D|-0--0--0--0----------0--0--0--0--------------------|
A|---------------------------------------------------|
E|---------------------------------------------------|

D
And in the daylight
  C         G       D
A blackbird makes a violent sight
D
And when she is done
    C      G          D
She sleeps beside the one
D    C  G  D
Woah-oh-oh-oh
D    C  G  D
Woah-oh-oh-oh
         C          G         F
Yes, and I know the truth about you
She cat

solo:

E|--------------0------------------0------------{7}--|
B|----------------0------------------0-------{7}-----|
G|--2--3--2--3------2---2--3--2--3-----2--{7}--------|
D|-0--0--0--0----------0--0--0--0--------------------|
A|---------------------------------------------------|
E|---------------------------------------------------|

E|-----------------------------------------------------------------------------------------|
B|-7---7------7777-55--7777-55--7777-55--7777-55--7777-55--7777-55--7777-55--7777-55--5/2--|
G|-5^--5^-----5555-55--5555-55--5555-55--5555-55--5555-55--5555-55--5555-55--5555-55--5/2--|
D|-----------------------------------------------------------------------------------------|
A|-----------------------------------------------------------------------------------------|
E|-----------------------------------------------------------------------------------------|

C  G  D
oh-oh-oh
D    C  G  D
Woah-oh-oh-oh
         C          G         F
Yes, and I know the truth about you
She cat

solo:

E|--------------0------------------0--------|
B|----------------0------------------0------|
G|--2--3--2--3------2---2--3--2--3-----2----|
D|-0--0--0--0----------0--0--0--0-----------|
A|------------------------------------------|
E|------------------------------------------|

E|-----------------------------------------------------------------------------------------------------|
B|-----------------------------------------------------------------------------------------------------|
G|-2-3-2--3/5--2-2-3~~--2-3-2--3/5--2-2-3~~--11-12-11--12/14--11-11-12~~--11-12-11--12/14--11-11-12~~--|
D|-----------------------------------------------------------------------------------------------------|
A|-----------------------------------------------------------------------------------------------------|
E|-----------------------------------------------------------------------------------------------------|

E|---------------------------------------------------------------------------------------|
B|---------------------------------------------------------------------------------------|
G|-14-15-14-17--14-14-15-14-17--14-14-15-14~~--14-14-15-14-17--14-14-15-14~~-------------|
D|---------------------------------------------------------------------------------------|
A|---------------------------------------------------------------------------------------|
E|---------------------------------------------------------------------------------------|

E|-----------------------------------------------------------------------------------------------|
B|-----------------------------------------------------------------------------------------------|
G|-17-19-17-21--17-17-19-17-21--17-17-19-17~~--17-17-19-17-21--17-17-19-17/15-15/14-14/12-12-11~~|
D|-----------------------------------------------------------------------------------------------|
A|-----------------------------------------------------------------------------------------------|
E|-----------------------------------------------------------------------------------------------|

E|----------------------------------------------------------------------------------------------|
B|-----{7}-----{5}--{5}-------------------------------------------------------------------------|
G|---{7}-----{5}------{5}----------7---7----7--5-4-------7----7---7-5-4---0--0---------0----0--0|
D|-{7}-----{5}----------{5}----------5---5--5------2-2/5---5--5-5-5----2--2----2-----4---4-----2|
A|------------------------{5}-{7}-----------------------------------------3-----3/5------------3|
E|----------------------------------------------------------------------------------------------|


E|--------------------------------------------------12-----15-----------12----15---------------------0---|
B|----------------------------------------------------12-----12-----------12----12---------------------1-|
G|-0------0--0--0--0-----------------------5--7---------12-----12--7-------12----12--7-7-----------2-----|
D|--2----4-4-----2----4-2-0-2-2/4-4-5-7---5-----5--------------------5---------------5-5--5-3-5--3-------|
A|----3/5---------3----------------------5---------------------------------------------------------------|
E|-------------------------------------------------------------------------------------------------------|


E|------12----15---------12----15----------------------0----------------------------------------------|
B|--------12----12---------12----12----------------------1--15-15---------------15-15-----------------|
G|-7--------12----12--7------12----12--7-7-----------2-----------12-12-----12-12-----12-12-----12-12--|
D|---5------------------5--------------5-5--5-3-5--3------------------12-12---------------12-12-------|
A|----------------------------------------------------------------------------------------------------|
E|----------------------------------------------------------------------------------------------------|


E|----------------------------------------------------------------------------------------------------|
B|-15-15---------------15-15-----------------18-18--18-18--18-18--18-18----20-20--20-20--20-20--20----|
G|------12-12-----12-12-----12-12-----12-12-------15-----15-----15-----15-------17-----17-----17------|
D|----------12-12----------------12-12----------------------------------------------------------------|
A|----------------------------------------------------------------------------------------------------|
E|----------------------------------------------------------------------------------------------------|


E|---------------------------------------------------------------------------------------|
B|-15-15---------------15-15---------------15-15---------------15-15---------------------|
G|------12-12-----12-12-----12-12-----12-12-----12-12-----12-12-----12-12-----12-12------|
D|-----------12-12---------------12-12---------------12-12---------------12-12-----------|
A|---------------------------------------------------------------------------------------|
E|---------------------------------------------------------------------------------------|


E|---------------------------------------------------------------------------------------|
B|-18-18--18-18--18-18--18-18----20-20--20-20--20-20--20-----0------0--------------------|
G|------15-----15-----15-----15-------17-----17-----17------0------0------------------5--|
D|---------------------------------------------------------2---2--0---0--3-3/5-3-7---5---|
A|----------------------------------------------------------------------------------5----|
E|---------------------------------------------------------------------------------------|


E|--------------------------------------------------------|
B|-----------------------------------0--------------------|
G|-0-0-----0---0--0-0-----0---0--0----0-----------0-------|
D|-2--2---4-4-----2--2---4-4-----2-----2--5----0--2-------|
A|-3---3/5--------3---3/5--------3--------5---2---3-------|
E|-------------------------------------------3------------|

LEGENDA DE SINAIS


{7} ou {5} O DEDO DEVE SER COLOCADO BEM DE LEVE NO TRASTE PARA GERA O HARMÔNICO NATURAL.

3/5 SLIDE. EX:VOCÊ TOCA A CORDA LÁ NA CASA 3 E DESLIZA O DEDO ATE A CASA 5.

B|-7-  NESTE CASO O SINAL "^" QUE SE ENCONTRA DEPOIS DA NOTA 5 DEVE SER PUXADO PRA CIMA.
G|-5^  ACHO QUE O NOME DESTA TÉCNICA É bend

~~ ESTE SINAL SIGNIFICA TREMULO
reproducciones 52
Acordes para:
    Colaboración y revision:
    • Eduardo Santos

    0 comentarios

    mostrar más comentarios

    ¿Conseguiste tocar?

    0 tocaron 0 aún no

    ¡Graba un vídeo tocando An Cat Dubh Intro y envianoslo!

    00:00 / 00:00
    outros vídeos desta música
    repetir qualidade Automático
    Outros vídeos desta música
    00:00 / 00:00
    Automático
    OK