Cifra Club

Beautiful Day

U2

Cifrado: Simplificada (guitarra y guitarra eléctrica)
tono: D
[Intro] A  Bm  D  G  D  A
        A  Bm  D  G  D  A

                   A  Bm  D  G
The heart is a bloom
       D                    A
Shoots up through the stony ground
              A  Bm  D  G
There's no room
   D                A
No space to rent in this town
               A  Bm  D  G
You're out of luck
        D                      A
And the reason that you had to care
             A  Bm  D  G
The traffic is stuck
               D          A
And you're not moving anywhere
                 A  Bm   D  G
You thought you found a friend
            D           A
To take you out of this place
        A   Bm    D      G
Someone you could lend a hand
     D        A
In return for grace

                 A  Bm  D  G
It's a beautiful day
D               A
Sky falls you feel like
             A  Bm  D  G
A beautiful day
       D           A
Don't let it get away

E|-----------------------------------------------------|
B|-----------------------------------------------------|
G|--------4-4-4-7-7-7----------------------------------|
D|--7-7-7-------------5-5-5-5-5-0-0-0-0-0-7-7-7-7-7----|
A|-----------------------------------------------------|
E|-----------------------------------------------------|

              A  Bm  D  G
You're on the road
            D           A
But you've got no destination
                A  Bm  D  G
You're in the mud
        D                A
In the maze of her imagination
             A  Bm  D  G
The love is done
D           A
Even if that doesn't ring true
       A  Bm   D   G
You've been all over
        D               A
And it's been all over you

                  A  Bm  D  G
It's a beautiful day
      D            A
Don't let it get away
             A  Bm  D  G  D  A
A beautiful day

F#m     G
Touch me
D               A
Take me to that other place
F#m      G
Teach me
D                A              A  Bm  D  G   D  A
I know I'm not a hopeless case

E|-9-9-9-7-9-10-------------10-10-10-9-10-9-7-9-7-9-7-|
B|--------------8-8-8-8-8-8---------------------------|
G|----------------------------------------------------|
D|----------------------------------------------------|
A|----------------------------------------------------|
E|----------------------------------------------------|

Em
See the world in green and blue
D
See time move right in front of you
Em              G
See the canyons broken by cloud
D
See the tuna fleets clearing the sea out
Em              G
See the Bedouin fires at night
D
See the oil fields at first light
Em                      G
And see the bird with a leaf in her mouth
D                       A
After the flood all the colors came out

                  A  Bm  D  G
It's a beautiful day
      D            A
Don't let it get away
             A  Bm  D  G  D  A
A beautiful day

F#m     G
Touch me
D               A
Take me to that other place
F#m     G
Teach me
D                 A
I know I'm not a hopeless case

     A        Bm              D       G
What you don't have you don't need it now
          D                  A
What you don't know you can feel it somehow
     A        Bm              D       G
What you don't have you don't need it now
          D     A
Don't need it now
                A  Bm  D  G  D  A
Was a beautiful day
                A  Bm  D  G  D  A
Was a beautiful day

E|-9-9-9-7-9-10-------------10-10-10-9-10-9-7-9-7-9-7-|
B|--------------8-8-8-8-8-8---------------------------|
G|----------------------------------------------------|
D|----------------------------------------------------|
A|----------------------------------------------------|
E|----------------------------------------------------|
Composición de Adam Clayton / Bono / Larry Mullen, Jr. / The Edge
Colaboración y revisión:
  • Reginaldo Ornellas
1.038 vistas
    • ½ Tono
    • A
    • Bb
    • B
    • C
    • Db
    • D
    • Eb
    • E
    • F
    • F#
    • G
    • Ab
  • Agregar a la lista

    0 comentarios

    Ver todos los comentarios

    ¿Lograste tocar?

    2 Tocaron 0 Aún no

    ¡Graba un video tocando Beautiful Day y envíanoslo!

    00:00 / 00:00
    Outros vídeos desta música
    Repetir Calidad Automático
    Outros vídeos desta música
    00:00 / 00:00
    Automático
    OK