Cifra Club

California (There Is No End To Love)

U2

Tablatura: Principal (guitarra)
Tom: A
D                A
Bar-Bar-Barbara, Santa Barbara

E                F#m
Bar-Bar-Barbara, Santa Barbara

D                A
Bar-Bar-Barbara, Santa Barbara

F#m              B
Bar-Bar-Barbara, Santa Barbara

D        A
California
E                     F#m
Then we sail into the shallow sea
D                   A
The wind that drags your heart down
F#m                               B
Well, that's what took me where I need to be

D              A
Which is here, Alazzurra
E                F#m
Watching you cry like a baby
D        A
California
F#m                           B
At the dawn you thought would never come
D      A
But it did
         E
Like it always does

Bm            A
Whoa, oh, you know
F#m              A
And all I need to know is
D                  A
There is no, yeah, there is no end
Bm
To love

D             A
I didn't call you
E                  F#m
A risk can scare a thought away
D                 A
Everyone's a star in our town
F#m                       B
It's just your light gets dimmer if you have to stay


D                    A
Can you imagine in a mirror
E                      F#m
Watching yourself cry like a baby
D        A
California
F#m                     B
The blood orange season brings you to your knees
D                     A
I've seen for myself, there's no end to grief
E
That's how I know

Bm               A
Whoa, that's how I know
F#m               E
And why I need to know
D                           A
If there is no, if there is no end
Bm
To love

Bm            A
Whoa, oh, you know
F#m               E
And all I need to know is
D                           A
There is no, yeah, there is no end
Bm
To love

Solo: D  A  E  F#m  D  A  F#m  B


E|-----------------------------------------\
B|-----------------5-----------------------|
G|--6b---4-6--4-6-----6b--4-6--4-----------|  2x
D|--------------------------------4--------|
A|-----------------------------------------|
E|-----------------------------------------/


E|-----------------------------------------------------\
B|-----------------------------------------------------|
G|--11/14-14/11--11/9--9/11--11/9--9/7--7/6--6---------|   3x
D|-----------------------------------------------------|
A|-----------------------------------------------------|
E|-----------------------------------------------------/


E|------------------------------------|
B|-------5------5---------------------|
G|--4h6----4h6----4h6---9-8-7---------|
D|------------------------------------|
A|------------------------------------|
E|------------------------------------|

Bm               A
Whoa, oh, you know
F#m               E
And all I need to know is
D                           A
There is no, yeah, there is no end
Bm
To love

Bm               A
Whoa, we come and go
F#m               E            D
With stolen days you don't get back
A                    Bm
Stolen days are just enough

( D  A  Bm  D )
reproducciones 391
Acordes para:
    Colaboración y revision:
    • Eduardo Santos

    0 comentarios

    mostrar más comentarios

    ¿Conseguiste tocar?

    3 tocaron 0 aún no

    ¡Graba un vídeo tocando California (There Is No End To Love) y envianoslo!

    00:00 / 00:00
    outros vídeos desta música
    repetir qualidade Automático
    Outros vídeos desta música
    00:00 / 00:00
    Automático
    OK