Cifra Club

Discotheque

U2

Tablatura: Principal (guitarra)
Tom: G
(in B minor) 
  

     (heavy distortion) 

     1---------------------------------- 
     2---------------------------------- 
     3---------------------------------- ----------- 
     4---------------------------------- later add: ----------- 
     5---2---2---0h2---2--2--2---0h2---- ----5---2-- 
     6---------------------------------- ----------- 
  
     (LATER ADD: 
  
     1 ------------ 
     2 ------------ 
     3 ------------ 
     4 ------------ 
     5 ----5---2-- ) 
  
  
     You can reach, but you can't grab it 
     You can't hold it, control it, you can't bag it 
     You can push, but you can't direct it 
     Circulate, regulate, you cannot connect it 
  
  
     (improvise this riff with a wah) 
     1 ---------------- 
     2 ---------------- 
     3 ---4---2h4---2-- 
     4 ---------------- 
     5 ---------------- 
     6 ---------------- 
  
  
     You know you're chewing bubble gum 
     You know what that is, but you still want some 
     You just can't get enough of that lovie dovie stuff 
  
  
     Main riff 
     1 ------------------------------------------------------- 
     2 ------------------------------------------------------- 
     3 ------------------------------------------------------- 
     4 -----------------2------------------------------------- 
     5 ---5---2--2--2-------2--2--2----5--2--2--2----2--0h2--- 
     6 ------------------------------------------------------- 
  
  
     You get confused, but you know it 
     Yeah you hurt for it, work for it, love 
     You don't always show it 
     Let go, let's go, discotheque 
     Go go, let go, discotheque 
  
  
     chorus: 
  

     1 ---------------------------------------------------------- 
     2 ---------------------------------------------------------- 
     3 ---9b(11)r---7---------7--7\4--4--4/9-----9b(11)r--7------ 
     4 -----------------9-------------------------------------9-- 
     5 ---------------------------------------------------------- 
     6 ---------------------------------------------------------- 
  
          Looking for the one, but you know you're somewhere else instead 
          You want to be the song, the song that you hear in your head 

  

     solo with delay: 

     1-------------------5---7---5------ 
     2-----------7-------------------7-- 
     3---4---7-------7------------------ 
     4---------------------------------- (twice) 
     5---------------------------------- 
     6---------------------------------- 
  
  
     1------------4-------5---7---5----- 
     2---5---7--------5---------------5- 
     3---------------------------------- 
     4---------------------------------- 
     5---------------------------------- 
     6---------------------------------- 
  
  
     Love 
     It's not a trick...you can't learn it 
     It's the way you don't pay, that's OK, cause you can't earn it 
     You know you're chewing bubble gum 
     You know what that is but you still want some 
     You just can't get enough of that lovie dovie stuff 
     Let go, let's go, discotheque 
     Go go, let go, discotheque 
     Looking for the one, but y 
     ou know you're somewhere else instead 
     You want to be the song, the song that you hear in your head Love 
     But you take what you can get, cause it's all that you can find 
     Oh you know there's something more, but tonight, tonight, tonight 
  
  
     (with delay) 
     1---------------7-------------------7-- 
     2---------7------------------7--------- 
     3---9------------------9--------------- 
     4-------------------------------------- 
     5-------------------------------------- 
     6-------------------------------------- 

  

     Boom cha boom cha discotheque 
reproducciones 132
Acordes para:

    0 comentarios

    mostrar más comentarios

    ¿Conseguiste tocar?

    0 tocaron 0 aún no

    ¡Graba un vídeo tocando Discotheque y envianoslo!

    00:00 / 00:00
    outros vídeos desta música
    repetir qualidade Automático
    Outros vídeos desta música
    00:00 / 00:00
    Automático
    OK