Cifra Club

Aprenda

I Still Haven't Found What I'm Looking For

U2

Tab de bajo: Versão 2
common time(4/4)
standard tuning(EADG)

INTRO:

|-----------------|
|*---------------*|
|*-4-4-4-----2-4-*|
|----------4------|
   1 2 3 & a 4 &     

VERSE: 
              (x4)               (x2)              (x2)
|-----------------|------------------|-----------------|
|*---------------*|*-4-4-4----------*|*---------------*|
|*-4-4-4-----2-4-*|*-----------2-4--*|*-4-4-4-----2-4-*|
|----------4------|----------4-------|----------4------|
   1 2 3 & a 4 &     1 2 3 & a 4 &      1 2 3 & a 4 &

CHORUS:
                                          (x2)
|-----------------|---------|-----------------|
|-----------------|-4-------|*---------------*|
|-----------------|---------|*-4-4-4-----2-4-*|
|-4-4-4-4-4-4-4-3-|---------|---------4-------|
  1 & 2 & 3 & 4 &   1 2 3 4    1 2 3 & a 4 &

MIDDLE BIT:
              (x6)               (x2)              (x2)
|-----------------|------------------|-----------------|
|*---------------*|*----------------*|*---------------*|
|*-4-4-4-----2-4-*|*-----------2-4--*|*-4-4-4-----2-4-*|
|----------4------|--2-2-2---4-------|----------4------|
   1 2 3 & a 4 &     1 2 3 & a 4 &      1 2 3 & a 4 &

By: Johari Taylor
E-mail: *



Compositor Bono
12 reproducciones

0 comentarios

Mostrar mais comentários

¿Conseguiste tocar?

0 Tocaron 0 Ainda não

Grave um vídeo tocando I Still Haven't Found What I'm Looking For e mande pra gente!

00:00 / 00:00
outros vídeos desta música
repetir qualidade Automático
Outros vídeos desta música
00:00 / 00:00
Automático
OK