Cifra Club

Last Night On Earth

U2

Tablatura: Principal (guitarra)
Tom: D
riff 

   E                 D 
e|-------------------------------------------------- 
b-------------------------------------------------- 
g-------------------------------------------------- 
d-------------------0----7--7-7-------------------- 
a-2----2-----2------0--2/5--5-5-------------------- 
E|-0--0-3bp0--3bp0---------------------------------- 
 
 
(E D E D) 
She feels the ground is giving way 
But she thinks we're better off that way 
The more you take the less you feel 
The less you know the more you believe 
The more you have the more it takes today 
 
Refrão 
G            D             A     Bm 
  you got to give it away          
G            D             E     A   
  you got to give it away 
G            D             A     Bm 
  you got to give it away 
      A 
  she doesn't care what it's worth 
        A                                          Em  A  Em  A 
  she's living like it's the last night on earth 
 
(E D E D) 
She's not wating on a saviour to come 
She's at a bus-stop with the news of the world 
And the sun, here it comes 
She's not waiting for anyone 
 
Refrão 
 
 E C#m C#m A 
Slipping away...slip slide... 
The world turns and we get dizzy 
Slipping away 
 
Termina em Em 
volta pro main riff 
 
outro: Em A Em A 
 
  Em        A 
e|-0---------0---------------- 
b-0--0------2---------------- 
g-0----0----2---------------- 
d-2------0--2---------------- 
a-2---------0---------------- 
reproducciones 103
Acordes para:
    Composição: Adam Clayton / Bono / Larry Mullen, Jr. / The Edge Colaboración y revision:
    • Samuel Tamotsu

    0 comentarios

    mostrar más comentarios

    ¿Conseguiste tocar?

    0 tocaron 0 aún no

    ¡Graba un vídeo tocando Last Night On Earth y envianoslo!

    00:00 / 00:00
    outros vídeos desta música
    repetir qualidade Automático
    Outros vídeos desta música
    00:00 / 00:00
    Automático
    OK