Cifra Club

Like A Song

U2

Tab de bajo: Principal

Standard Tuning E,A,D,G

Intro
G|----------------------------|---------------------------------|
D|*-------------12------------|--------------------------------*|
A|*-7-------------------------|-12-----------------------------*|
E|----------------------------|---------------------------------|

G|----------------------------|---------------------------------|
D|*-------------12------------|--------------------------------*|
A|*-7-------------------------|-12-----------------------------*|
E|----------------------------|---------------------------------|

Verse

G|----------------------------|---------------------------------|
D|*-------5-------------------|--------------------------------*|
A|*-7--7h---7--0--5--5h-4-5-4-|--0--0h---0--0---/2--2h--0-2/---*|
E|----------------------------|---------------------------------|

G|----------------------------|---------------------------------|
D|*-------5-------------------|--------------------------------*|
A|*-7--7h---7--0--5--5h-4-5-4-|--0--0h---0--0---/2--2h--0-2/---*|
E|----------------------------|---------------------------------|

Bridge

G|--------------------------------------------------------------------|
D|*------------------------------------------------------------------*|
A|*-7-7-7-7-7-7-7-7-5-5-5-5-5-5-5-5-3-3-3-3-3-3-3-3-2-2-2-2-2-2-2-2/-*|
E|--------------------------------------------------------------------|

G|--------------------------------------------------------------------|
D|*------------------------------------------------------------------*|
A|*-7-7-7-7-7-7-7-7-5-5-5-5-5-5-5-5-3-3-3-3-3-3-3-3-2-2-2-2-2-2-2/14/*|
E|--------------------------------------------------------------------|

Second Verse

G|----------------------------|---------------------------------|
D|*-------5-------------------|--------------------------------*|
A|*-7--7h---7--0--5--5h-4-5-4-|--0--0h---0--0---/2--2h--0-2/---*|
E|----------------------------|---------------------------------|

G|----------------------------|---------------------------------|
D|*-------5-------------------|--------------------------------*|
A|*-7--7h---7--0--5--5h-4-5-4-|--0--0h---0--0---/2--2h--0-2/---*|
E|----------------------------|---------------------------------|

G|----------------------------|---------------------------------|
D|*-------5-------------------|--------------------------------*|
A|*-7--7h---7--0--5--5h-4-5-4-|--0--0h---0--0---/2--2h--0-2/---*|
E|----------------------------|---------------------------------|

G|----------------------------|---------------------------------|
D|*-------5-------------------|--------------------------------*|
A|*-7--7h---7--0--5--5h-4-5-4-|--0--0h---0--0---/2--2h--0-2/---*|
E|----------------------------|---------------------------------|

Chorus

G|---------5~-------------5~--|------------7~--------------7~---|
D|*---------------------------|--------------------------------*|
A|*-3~-------------3~------\\-|--5~---------------5~-----------*|
E|----------------------------|---------------------------------|

Post-Chorus

G|----------------------------|---------------------------------|
D|*---------------------------|-------/-14------12-------------*|
A|*/-7-\\-------/-7-----5--7~-|---------------------14--12--10-*|
E|----------------------------|---------------------------------|

Third Verse

G|----------------------------|---------------------------------|
D|*-------5-------------------|--------------------------------*|
A|*-7--7h---7--0--5--5h-4-5-4-|--0--0h---0--0---/2--2h--0-2/---*|
E|----------------------------|---------------------------------|

G|----------------------------|---------------------------------|
D|*-------5-------------------|--------------------------------*|
A|*-7--7h---7--0--5--5h-4-5-4-|--0--0h---0--0---/2--2h--0-2/---*|
E|----------------------------|---------------------------------|

G|----------------------------|---------------------------------|
D|*-------5-------------------|--------------------------------*|
A|*-7--7h---7--0--5--5h-4-5-4-|--0--0h---0--0---/2--2h--0-2/---*|
E|----------------------------|---------------------------------|

G|----------------------------|---------------------------------|
D|*-------5-------------------|--------------------------------*|
A|*-7--7h---7--0--5--5h-4-5-4-|--0--0h---0--0---/2--2h--0-2/---*|
E|----------------------------|---------------------------------|

Chorus

G|---------5~-------------5~--|------------7~--------------7~---|
D|*---------------------------|--------------------------------*|
A|*-3~-------------3~------\\-|--5~---------------5~-----------*|
E|----------------------------|---------------------------------|

G|---------5~-------------5~--|------------7~--------------7~---|
D|*---------------------------|--------------------------------*|
A|*-3~-------------3~------\\-|--5~---------------5~-----------*|
E|----------------------------|---------------------------------|

Post-Chorus

G|----------------------------|-----------------------7---------|
D|*---------------------------|--------5-----------------------*|
A|*/-7-\\---/-7-\\------------|------------------5---------5---*|
E|----------------------------|--3----------3-------------------|

G|----------------------------|-----------------------7---------|
D|*---------------------------|--------5-----------------------*|
A|*/-7-\\---/-7-\\------------|------------------5---------5---*|
E|----------------------------|--3----------3-------------------|

Break - before guitar solo

G|----------------------------|---------------------------------|
D|*---------------------------|--------------------------------*|
A|*/-7-\\---------------------|--------------------------------*|
E|----------------------------|---------------------------------|

G|----------------------------|---------------------------------|
D|*-------5-------------------|--------------------------------*|
A|*\\7--7h--7--0--5--5h-4-5-4-|--0--0h---0--0---/2--2h--0-2/---*|
E|----------------------------|---------------------------------|

Guitar Solo

G|--------------------------------------------------------------------|
D|*------------------------------------------------------------------*|
A|*-7-7-7-7-7-7-7-7-5-5-5-5-5-5-5-5-3-3-3-3-3-3-3-3-2-2-2-2-2-2-2-2/-*|
E|--------------------------------------------------------------------|

G|---------------------------------------------------------------------|
D|*-------------------------------------------------------------------*|
A|*-7-7-7-7-7-7-7-7-5-5-5-5-5-5-5-5-3-3-3-3-3-3-3-3-2-2-2-2-2-2-2-2-\\*|
E|---------------------------------------------------------------------|

G|----------------------------------
D|*---------------------------------
A|*-7-7-7-7-7-7-7-7-5-5-5-5-5-5-5-5-
E|----------------------------------

-------------------------------------------------|
------------------------------------------------*|
-15-15-15-15-15-15-15-15-14-14-14-14-14-14-14-/-*|
-------------------------------------------------|

Fourth Verse

G|----------------------------|---------------------------------|
D|*-------5-------------------|--------------------------------*|
A|*\\7--7h--7--0--5--5h-4-5-4-|--0--0h---0--0---/2---2h--0-2/--*|
E|----------------------------|---------------------------------|

G|----------------------------|---------------------------------|
D|*-------5-------------------|--------------------------------*|
A|*\\7--7h--7--0--5--5h-4-5-4-|--0--0h---0--0---/2--2h--0-2/---*|
E|----------------------------|---------------------------------|

G|----------------------------|---------------------------------|
D|*-------5-------------------|--------------------------------*|
A|*\\7--7h--7--0--5--5h-4-5-4-|--0--0h---0--0---/2--2h--0-2/---*|
E|----------------------------|---------------------------------|

G|----------------------------|---------------------------------|
D|*-------5-------------------|--------------------------------*|
A|*\\7--7h--7--0--5--5h-4-5-4-|--0--0h---0--0---/2--2h--0-2/---*|
E|----------------------------|---------------------------------|

G|----------------------------|---------------------------------|
D|*-------5-------------------|--------------------------------*|
A|*\\7--7h--7--0--5--5h-4-5-4-|--0--0h---0--0---/2--2h--0-2/---*|
E|----------------------------|---------------------------------|

Chorus

G|---------5~-------------5~--|------------7~--------------7~---|
D|*---------------------------|--------------------------------*|
A|*-3~--------------3~-----\\-|--5~---------------5~-----------*|
E|----------------------------|---------------------------------|

G|---------5~-------------5~--|------------7~--------------7~---|
D|*---------------------------|--------------------------------*|
A|*-3~--------------3~-----\\-|--5~---------------5~-----------*|
E|----------------------------|---------------------------------|

Post-Chorus

G|----------------------------|-----------------------7---------|
D|*---------------------------|--------5-----------------------*|
A|*/-7-\\---/-7-\\------------|------------------5---------5---*|
E|----------------------------|--3----------3-------------------|

G|----------------------------|-----------------------7---------|
D|*---------------------------|--------5-----------------------*|
A|*/-7-\\---/-7-\\------------|------------------5---------5---*|
E|----------------------------|--3----------3-------------------|

Outro

G|-5h7----------|5h7----------|----------------|
D|*----7--------|----7--------|---------------*|      play
A|*------7--5-5-|------7-5--5-|---------------*|  until fade out
E|--------------|-------------|-0--5p0---5p0---|

reproducciones 40

0 comentarios

mostrar más comentarios

¿Conseguiste tocar?

0 tocaron 0 aún no

¡Graba un vídeo tocando Like A Song y envianoslo!

00:00 / 00:00
outros vídeos desta música
repetir qualidade Automático
Outros vídeos desta música
00:00 / 00:00
Automático
OK