Cifra Club

New Years Day

U2

Tablatura: Principal (guitarra)
Tom: F#
Intro:
E|---------9-11---7-9-6-|------9-11--7-9-6---7-6-6-6-7-9--11-9-7---6-7-4--9-6-6-7-9-|
B|-------9--------------|----9------------------------------------------------------|
G|----------------------|-----------------------------------------------------------|
D|----------------------|------------------5----------------------------------------|
A|---11-----------------|-11--------------------------------------------------------|
E|----------------------|------------------2----------------------------------------|

Abm     B       Ebm
All is quiet on New Year's Day
Abm     B       Ebm
A world in white, gets underway
Abm            B                      Ebm
And I want to be with you, be with you night and day

Abm     B          Ebm          Abm
Nothing changes on New Year's Day
    Ebm
On New Year's Day

Refrão:
Gb              Abm
I will be with you again
Gb              E   Abm  B  Ebm
I will be with you again
Abm     B          Ebm
Under a blood red sky
Abm         B        Ebm
A crowd has gathered in black and white
Abm     B       Ebm
Arms entwined, the chosen few
Abm             B    Ebm                Gb
Newspaper say, says, say it's true, it's true
Abm
And we can break through
        B                  E
Though torn in two, we can be one

Gb         Abm
I, I will begin again
Gb         E            Abm     B  Ebm  Abm 
I, I will begin again, yeah

(Intro)
Solo:
E|-18~-14-16-11~-14-9-11-6-6-6-6-6-6-6-6-6-6-6-6/18~-14-16-11~-14-9-11\6-6-6-6--|
B|------------------------------------------------------------------------------|
G|------------------------------------------------------------------------------|
D|------------------------------------------------------------------------------|
A|------------------------------------------------------------------------------|
E|------------------------------------------------------------------------------|

E|------------------------------------------------------------------------------|
B|------------------------------------------------------------------------------|
G|------------------------------------------------------------------------------|
D|----4----4-6~-----6~~-----4--1/9~-9-8-4~~-9~9~-8\1-9~-9-8-8~-9-11-8~-8~8-8-6\-|
A|--4----6------4-6-----1--4----------------------------------------------------|
E|-4----------------------------------------------------------------------------|

Nothing changes on New Year's Day...
                                  Db4  Eb4
E|---------------------------------------------
A|--------------------------------7-7--9--9----
D|--------------------------------6-6--7--7----
G|--------------------------------6-6--7--7----
B|---------------------------------------------
E|---------------------------------------------

On New Year's Day...
                    Db4
E|-----------------------------
A|-----------xxx----7-7--------
D|-----------xxx----6-6--------
G|-----------xxx----6-6--------
B|-----------------------------
E|-----------------------------

Refrão:
I... will be with you again....
       Db4         Eb4
E|---------------------------------
A|-----7--7--7--7---9--9--9--9-----
D|-------6--6--6--6---8--8--8--8---
G|---------------------------------
B|---------------------------------
E|---------------------------------
reproducciones 3.289
Acordes para:
    Composição: Adam Clayton / Bono / Larry Mullen, Jr. / The Edge Colaboración y revision:
    • Wernner Silva
    • diego sousa

    0 comentarios

    mostrar más comentarios

    ¿Conseguiste tocar?

    8 tocaron 3 aún no

    ¡Graba un vídeo tocando New Years Day y envianoslo!

    00:00 / 00:00
    outros vídeos desta música
    repetir qualidade Automático
    Outros vídeos desta música
    00:00 / 00:00
    Automático
    OK