Cifra Club

Stories For Boys

U2

Tablatura: Principal (guitarra)
Tom: G
e|---------3-|--------3-2-|------------|-------7---------|--------5---------|
B|-------1---|------1-----|------------|-----5-----------|-----5------------|
G|-----2-----|----2-------|------------|*--0-------------|---0-------------*|
D|-----------|------------|------------|*----------------|-----------------*|
A|-----------|------------|------------|--------55-44-33-|---------55-44-33-|
E|--0--------|--0---------|------------|-0---------------|-0----------------|

e|----0----|----0----|--3--5--3--5--3--3--5--|--2-0--|----0----|--2-0--|
B|----0----|----0----|--3--3--3--3--3--3--5--|--0-0--|----0----|--0-0--|
G|----0----|*---0----|----------------------*|-------|----0----|-------|
D|----2----|*---2----|----------------------*|-------|----2----|-------|
A|---------|---------|-----------------------|-------|----2----|-------|
E|---------|---------|-----------------------|-------|----0----|-------|

Refrão:
Come and go....   Stories for Boys....          (natural harmonics)__________

e|---888-888-8---|----0--|---0-|---0-|-0-7---5-|----12-|--7-----|-------|--7--|
B|---888-888-8---|--0----|-----|-0---|-----0---|-12----|----7---|-------|--7--|
G|*-------------*|*------|-2---|-----|--------*|-------|------7-|---7-5-|--7--|
D|*-(5)-(7)-(5)-*|*------|-----|-----|--------*|-------|--------|-7-----|--7--|
A|--(3)-(5)-(3)--|-------|-----|-----|---------|-------|--------|-------|-----|
E|---------------|-------|-----|-----|---------|-------|--------|-------|-----|
                                    (n.h.)
e|---0----|    end |--12-12--12-12-|---12---|
B|-----0--|       |---------------|---12---|
G|--------|       |---------------|---12---|
D|--------|       |---------------|--------|
A|--------|       |---------------|--------|
E|--------|        |---------------|--------|
reproducciones 36
Acordes para:
    Composição: Adam Clayton / Bono / Larry Mullen, Jr. / The Edge Colaboración y revision:
    • Vania santo

    0 comentarios

    mostrar más comentarios

    ¿Conseguiste tocar?

    0 tocaron 0 aún no

    ¡Graba un vídeo tocando Stories For Boys y envianoslo!

    00:00 / 00:00
    outros vídeos desta música
    repetir qualidade Automático
    Outros vídeos desta música
    00:00 / 00:00
    Automático
    OK