Cifra Club

Sunday Bloody Sunday

U2

Cifrado: Principal (guitarra y guitarra eléctrica)
tono: Bbm (con acordes en la forma de Bm) Afinación: Eb Ab Db Gb Bb Eb
[Intro] Bm  D  G6

E|-----2-------2-------0-------0-----------------------|
B|---3---3---3---3---3---3---3---3---------------------|
G|-4-------2-------0-------0-------0-------------------|
D|-----------------------------------------------------|
A|-----------------------------------------------------|
E|-----------------------------------------------------|

[Primeira Parte]

Bm            D                G6  Bm
   I can't believe the news today
          D
I can't close my eyes 
     G6
And make it go away

[Pré-Refrão]

D           
  How long
 Em                              D
How long must we sing this song?
               Em
How long, how long?

[Refrão]

   Bm   D  G           
Tonight   we can be as one
   Bm   D  G
Tonight

[Segunda Parte]

Bm         D
   Broken bottles 
        G             Bm
Under children's feet
            D
And body strewn across 
   G6             Bm
A dead-end street
             D               G6  Bm
But I won't heed the battle call
            D                G6
It puts my back up, puts my back up 

Against the wall

Bm     D           G6    Bm
   Sunday, bloody Sunday
    D           G6
Sunday, bloody Sunday

[Interlúdio 1] (Riff)
               Bm  D  G

  H.N.   . .   . .
E|-----------------------------------------------------|
B|-------------7---------------------------------------|
G|---7---7-5-----5-------------------------------------|
D|-7---------------------------------------------------|
A|-----------------------------------------------------|
E|-----------------------------------------------------|

[Terceira Parte]
 
Bm          D              G  Bm
   And the battles just begun
              D      
There's many lost but tell me
  G6         Bm
Who has won?
              D              G6    Bm
The trenches dug within our hearts
               D          
And mother's children, brothers
 G6
Sisters torn apart

Bm     D           G6    Bm
   Sunday, bloody Sunday
    D           G6
Sunday, bloody Sunday

[Pré-Refrão]

D           
  How long
 Em                              D
How long must we sing this song?
               Em
How long, how long?

[Refrão]

   Bm   D  G            
Tonight   we can be as one
   Bm   D  G
Tonight

   Bm   D  G             
Tonight     
   Bm   D  G
Tonight

[Solo]

E|-12-12-12p10--10-10-10--12-12-12p10--10-10-10--------|
B|-----------------------------------------------------|
G|-----------------------------------------------------|
D|-----------------------------------------------------|
A|-----------------------------------------------------|
E|-----------------------------------------------------|

E|-----------------------------------------------------|
B|-12-12-12p10--10-10-10--12-12-12p10--10-10-10--------|
G|-----------------------------------------------------|
D|-----------------------------------------------------|
A|-----------------------------------------------------|
E|-----------------------------------------------------|

E|-12-12-12p10--10-10-10--12-12-12p10--10-10-10--------|
B|-----------------------------------------------------|
G|-----------------------------------------------------|
D|-----------------------------------------------------|
A|-----------------------------------------------------|
E|-----------------------------------------------------|

E|-----------------------------------------------------|
B|-12-12-12p10--10-10-10--12-12-12p10--10-10-10--------|
G|-----------------------------------------------------|
D|-----------------------------------------------------|
A|-----------------------------------------------------|
E|-----------------------------------------------------|

E|-----------------------------------------------------|
B|-10-10-10\8--8-8-8\7--7-7-7\5--5-5-5\3--3-3-3h5-3-3-2|
G|-----------------------------------------------------|
D|-----------------------------------------------------|
A|-----------------------------------------------------|
E|-----------------------------------------------------|

E|-----------------------------------------------------|
B|-2h3--2--2--0--0--2h3--3--5--5--7--7--8--8--10-10-10-|
G|-----------------------------------------------------|
D|-----------------------------------------------------|
A|-----------------------------------------------------|
E|-----------------------------------------------------|

E|-----------------------------------------------------|
B|-12-12-12--15-15-15--14--10-12--12~------------------|
G|-----------------------------------------------------|
D|-----------------------------------------------------|
A|-----------------------------------------------------|
E|-----------------------------------------------------|

[Quarta Parte]

Wipe your tears away
Wipe your tears away
Wipe your tears away
Wipe your tears away
Wipe your tears away

Sunday, bloody Sunday
Sunday, bloody Sunday
Sunday, bloody Sunday
Sunday, bloody Sunday

[Interlúdio 2] (Riff)
               Bm  D  G

  H.N.   . .   . .
E|-----------------------------------------------------|
B|-------------7---------------------------------------|
G|-7-----7-5-----5-------------------------------------|
D|---7-------------------------------------------------|
A|-----------------------------------------------------|
E|-----------------------------------------------------|

  H.N.   . .   . .
E|-----------------------------------------------------|
B|-------------7---------------------------------------|
G|---7---7-5-----5-------------------------------------|
D|-7---------------------------------------------------|
A|-----------------------------------------------------|
E|-----------------------------------------------------|

  H.N.   . .   . .
E|-----------------------------------------------------|
B|-------------7---------------------------------------|
G|-7-----7-5-----5-------------------------------------|
D|---7-------------------------------------------------|
A|-----------------------------------------------------|
E|-----------------------------------------------------|

  H.N.   . .   . .
E|-----------------------------------------------------|
B|-------------7---------------------------------------|
G|---7---7-5-----5-------------------------------------|
D|-7---------------------------------------------------|
A|-----------------------------------------------------|
E|-----------------------------------------------------|
00:00 / 00:00
Otros videos de esta canción
Repetir
Otros videos de esta canción
Composición de Adam Clayton / Bono / Larry Mullen, Jr. / The Edge
Colaboración y revisión:
  • Vinícius Dias
1.372 vistas
    • ½ Tono
    • Am
    • Bbm
    • Bm
    • Cm
    • C#m
    • Dm
    • Ebm
    • Em
    • Fm
    • F#m
    • Gm
    • G#m
  • Agregar a la lista

    0 comentarios

    Ver todos los comentarios

    ¿Lograste tocar?

    1 Tocaron 0 Aún no

    ¡Graba un video tocando Sunday Bloody Sunday y envíanoslo!

    00:00 / 00:00
    Capítulos
    • Apresentação / Equipamentos
    • Afinação
    • Dica
    • Ensinando Introdução e Riff Principal
    • Ensinando Ritmo do Pré-Refrão
    • Ensinando Ritmo do Primeiro Refrão
    • Ensinando Interlúdio 1
    • Ensinando Solo da Música - Parte 1 de 3
    • Ensinando Solo da Música - Parte 2 de 3
    • Ensinando Solo da Música - Parte 3 de 3
    • Tocando Solo da Música
    • Ensinando Interlúdio 2 - Parte 1 de 4
    • Ensinando Interlúdio 2 - Parte 2 de 4
    • Ensinando Interlúdio 2 - Parte 3 de 4
    • Ensinando Interlúdio 2 - Parte 4 de 4
    • Encerramento
    OK