Cifra Club

Aprenda

Walk On

U2

Tablatura: Principal (guitarra)
Tom: D
Dm       Cadd9
And love it's not the easy thing
G
The only baggage That you can bring
Dm
Love It's not the easy thing
Cadd9
The only baggage you can bring
   G
Is all that you can't leave behind

( D     Asus4     G     Em7 )

( D     Asus4     G     E )

D             A              G        Em7
   And if the darkness is to keep us apart
D              A                  G               Em7
   And if the daylight feels like it's a long way off
D         A                       G
   And if your glass heart should crack
            Em7            D
Before the second you turn back
   A      E
Oh no, be strong ...  ohhh

     D
Walk on
     Asus4
Walk on
          G
What you got, they can't steal it
   Em7
No they can't even feel it

     D
Walk on
     Asus4
Walk on
G              E
  Stay safe tonight

D                    Asus4         G
   You're packing a suitcase for a place
               Em7
None of us has been
D               Asus4
   A place that has to be believed
G        Em7
   To be seen
D                 Asus4
   You could have flown away
   G
A singing bird
      Em7
In an open cage
        D
Who will only fly
Asus4            E
  Only fly for freedom ... Ohhh

     D
Walk on
     Asus4
Walk on
          G                           E
What you got, they can't deny it, can't sell it, can't buy it
     D
Walk on
     Asus4
Walk on
G              E
 Stay safe tonight

      D
And I know it aches
         Asus4
How your heart it breaks
        E
You can only take so much


solo:
Bm   G  Em7  A
Walk on
Bm  G  Em7   A (e continua no Lá Maior)
Walk on

E|-----------------------------------------------------------------------------|
B|-7/8--8/10--10/12-12~~-12~~--15-14-12-12h14---12h14--------------------------|
G|---------------------------------------------------14--12h14--11-9-9h11-11---|
D|-----------------------------------------------------------------------------|
A|-----------------------------------------------------------------------------|
E|-----------------------------------------------------------------------------|

E|----------------------------------------------------------------------------------|
B|-7/8--8/10--10/12-12~~-12~~--15-14-10-10-7-7/10-10--14b-12-10-10--14b-12--14-14---|
G|----------------------------------------------------------------------------------|
D|----------------------------------------------------------------------------------|
A|----------------------------------------------------------------------------------|
E|----------------------------------------------------------------------------------|

E|------------------------------------------------------------|
B|-14b-12-10-7-5h7-5---5h7--5---------------------------------|
G|-------------------7--------7-------------------------------|
D|------------------------------------------------------------|
A|------------------------------------------------------------|
E|------------------------------------------------------------|

D   A/C#
Home
        G                       Em7
Hard to know what it is if you never had one
D   A/C#
Home
        G                       Em7
I can't say where it is but I know I'm going
D   A/C#
Home
                 E
That's where the heart is
        D
And I know it aches
         Asus4
How your heart it breaks
        E
You can only take so much
     Em7     G     D    Asus4
Walk on
           Em7  G                       D    Asus4
Leave it behind..you've got to leave it behind

             Em7                    G
All that you fashion.. all that you make
             D                    A
All that you build.. all that you break
             Em7                    G
All that you measure.. all that you feel
             D            A
All this you can leave behind

E|----------------------------------------------------------|
B|---------7------------------7------------------7----------|
G|-----9-9---7--7-7-------9-9---7--7-7-------9-9---7--7-7---|
D|-7h9----------------7h9----------------7h9----------------|
A|----------------------------------------------------------|
E|----------------------------------------------------------|

E|---------------------------------------------------------|
B|---------------------------------------------------------|
G|-7-7--6-6--4-4--2-2--------------------------------------|
D|---------------------------------------------------------|
A|---------------------------------------------------------|
E|---------------------------------------------------------|

(Em7 G D A)
All that you reason
All that you sense
All that you speak
All you dress up
All that you scheme...
Compositor Adam Clayton / Bono / Larry Mullen, Jr. / The Edge
Colaboración y revision:
1.022 reproducciones
    • ½ Tom
    • A
    • Bb
    • B
    • C
    • Db
    • D
    • Eb
    • E
    • F
    • F#
    • G
    • Ab
  • Adicionar à lista

    0 comentarios

    Mostrar mais comentários

    ¿Conseguiste tocar?

    8 Tocaron 0 Ainda não

    Grave um vídeo tocando Walk On e mande pra gente!

    00:00 / 00:00
    outros vídeos desta música
    repetir qualidade Automático
    Outros vídeos desta música
    00:00 / 00:00
    Automático
    OK