Cifra Club

Aprenda

Where the Streets Have No Name

U2

Tablatura: Principal (guitarra)
Tom: G
[Intro] Dsus4  D      D/C#  F#m/G  B/G
        D             D/C#  F#m/G  B/G  
        Bm            A               
        D                          
Riff1 Intro (organ)
E|-3~~~---2~~~---9~---5~~---7~~~~~~---|
B|-3------3-----------7-----7---------|
G|-2------2-----------0-----0---------|
D|-0------0------0--------------------|
A|------------------------------------|
E|------------------------------------|
   Dsus4  D      D/C#  F#m/G  B/G
E|-10~~~~~~~~~---9~---5~~---7~~~~~~---|
B|-10-----------------7-----7---------|
G|-11-----------------0-----0---------|
D|-0-------------0--------------------|
A|------------------------------------|
E|------------------------------------|
   D             D/C#  F#m/G  B/G
E|-7---------------------5--------------------5--------------------|
B|-7---------------------5--------------------7--------------------|
G|-7---------------------6--------------------7--------------------|
D|-9---------------------7--------------------7--------------------|
A|-9---------------------7--------------------5--------------------|
E|-7---------------------5-----------------------------------------|
  Bm                    A                    D

Lead1a (Intro lead fast)
E|-10-----------------|
B|----10----------10--|
G|-------12-11-12-----|
D|--------------------|
A|--------------------| 8x
E|--------------------|

Lead1b (Intro lead fast)
E|-------10-------10--|
B|----10-------10-----|
G|-12-------12--------|
D|--------------------|
A|--------------------| 2x
E|--------------------|

Lead1c (Fast strum with echo)
E|---10--10--10--10--10--10-|
B|---10--10--10--10--10--10-|
G|---11--11--11--11--11--11-|
D|--------------------------|
A|--------------------------|
E|--------------------------|

Lead1d
E|-10-------10-------------|
B|----10-------10-------10-|
G|-------11-------11-12----|
D|-------------------------|
A|-------------------------|
E|-------------------------|

D      G          (&Lead1c/Lead1d)
D      G
Bm     A
Cadd9   Cadd9
          D
I  wanna  run   , I   want to hide  
          D                                          G
I  wanna  tear   down   the walls   that hold   me inside  
             Bm                            A
I want to reach   out       And touch  the flame  
           Cadd9                          Cadd9
Where  the streets have no  name               ah ah aaah
          D
I  wanna  feel   , sun light   on  my  face 
           D                                  G
I see that dust  cloud   disappear  without a trace  
               Bm                          A
I wanna  take  shel ter    from the poison rain  
           Cadd9                          Cadd9
Where  the streets have no  name               oooooooooh aah
[Chorus]
                               D
Where  the  streets  have  no  name   
                                D
Where  the  streets  have  no   name   
                             G
We're still buil ding   then BURN ING  down   love     BURN ING  down   love 
                Bm                      A
And   when  I   go  there  , I go there with   you   
                D
It's all  I can do   
               D
The  city's  a flood      And our  love turns to  rust  
                 D                                     G
We're beaten and blown   by  the  wind  , trampled  in dust  
                Bm                               A
I'll show you a place       high  on the desert  plain        (yeah)
           Cadd9                          Cadd9
Where  the streets have no  name               oooooh aaaah
[Chorus2]
                               D
Where  the  streets  have  no  name   
                                D
Where  the  streets  have  no   name   
                             G
We're still buil ding   then BURN ING  down   love     BURN ING  down   love 
                Bm                      A
And   when  I   go  there  , I go there with   you   
                D
It's all  I can do          Our  love  turns to rust  
                 G
We're beaten and blown     by  the  wind  , blown     by  the  wind  
         D
oh   and I see love       See our love  turn to rust  
                     G
And we're beaten and blown   by the wi  i  ind,   blown    by the wind  
           Bm                          A
oh   when I go  there       I go there with you  
                D    (&Lead1)
It's all  I can do   


Versão 2
E|-======-|

Intro

E|-------------10----------------10----|
B|-----------10--10------------10--10--|
G|--12-11-12----------12-11-10---------|
D|-------------------------------------|
A|-------------------------------------|
E|-------------------------------------|

D
I want to run, I want to hide
                                             G
I want to tear down the walls that hold me inside
                Bm
I want to reach out
              A
And touch the flame
          Csus9
Where the streets have no name


I want to feel, sunlight on my face
See that dust cloud disappear without a trace
I want to take shelter from the poison rain
Where the streets have no name

  D
Where the streets have no name
Where the streets have no name
                           G
We're still building then burning down love
Burning down love
           Bm                   A
And when I go there, I go there with you
                D
It's all I can do


The city's a flood
And our love turns to rust
We're beaten and blown by the wind, trampled in dust
I'll show you a place high on the desert plain
Where the streets have no name

Where the streets have no name
Where the streets have no name
Still building then burning down love
Burning down love
And when I go there, I go there with you
It's all I can do

 D
Our love turns to rust
                     G
And we're beaten and blown by the wind
                             D
Blown by the wind, oh and I see love
See our love turn to rust
                     G
And we're beaten and blown by the wind
                             Bm
Blown by the wind, oh when I go there
            A
I go there with you, it's all I can do
Compositor Adam Clayton / Bono / Larry Mullen, Jr. / The Edge
Colaboración y revision:
  • Lucas Fatala
  • Alessandre
4.685 reproducciones
  • Simplificar cifra
    • ½ Tom
    • A
    • Bb
    • B
    • C
    • Db
    • D
    • Eb
    • E
    • F
    • F#
    • G
    • Ab
  • Adicionar à lista

    0 comentarios

    Mostrar mais comentários

    ¿Conseguiste tocar?

    5 Tocaron 1 Ainda não

    Grave um vídeo tocando Where the Streets Have No Name e mande pra gente!

    00:00 / 00:00
    outros vídeos desta música
    repetir qualidade Automático
    Outros vídeos desta música
    00:00 / 00:00
    Automático
    OK