Cifra Club

Aprenda

Where the Streets Have No Name

U2

Tab de bajo: Versão 2
(intro.1)

G|-----------------------------------------------------------------------|
D|-----------------------------------------------------------------------|
A|5----5----10----10----5----5----10----10----14----14--14--12----12----5|
E|-----------------------------------------------------------------------|

(intro.2)

G|-------------------------------------------------------------------------|
D|-------------------------------------------------------------------------|
A|12\-5(32x)-0-5(16x)/10(16x)\5(16x)/10(16x)/14(16x)-12(16x)\3(16x)/15(32x)|
E|-------------------------------------------------------------------------|

(verso 2x)

G|---------------------------------------------|
D|---------------------------------------------|
A|5(48x)/10(16x)/14(16x)-12(16x)\3(16x)/15(32x)|
E|---------------------------------------------|

(refrao)

G|------------------------------------------|
D|------------------------------------------|
A|5(32x)--------2(16x)--------5(16x)/17(32x)|
E|-------3(32x)--------5(16x)---------------|

(verso)

G|------------------------------------------|
D|------------------------------------------|
A|5(48x)--------2(16x)--------3(16x)/15(32x)|
E|-------3(16x)--------5(16x)---------------|

(refrão)

G|-----------------------------------------------------------------------|
D|-----------------------------------------------------------------------|
A|5(32x)/10(32x)/14(16x)-12(16x)\5(32x)--------5(32x)-------2(16x)-------|
E|--------------------------------------3(32x)-------3(32x)--------5(16x)|

G|------------|
D|------------|
A|5----5----10|
E|------------|

(refrão) (Nos Shows [Live Chicago, ex.] o Mister Clayton faz o seguinte no refrão):

G|14--12--11--11-11111111--14--12--11--11--11111111---0~----------------------|
D|12--12--12--12-12121212--12--12--12--12--12121212--12~----12-12-14-12----12-|
A|----------------------------------------------------------------------14----|
E|----------------------------------------------------------------------------|

G|-0~----------------------------------------------------------|
D|12~----12-12----12-14-12-------------------------------------|
A|-------------12----------14(16x)-12(16x)-3(16x)-15(16x)------|
E|-------------------------------------------------------------|

Compositor Adam Clayton / Bono / Larry Mullen, Jr. / The Edge
Colaboración y revision:
  • Denis Feriance
  • Marcus Pereira
14 reproducciones

0 comentarios

Mostrar mais comentários

¿Conseguiste tocar?

0 Tocaron 0 Ainda não

Grave um vídeo tocando Where the Streets Have No Name e mande pra gente!

00:00 / 00:00
outros vídeos desta música
repetir qualidade Automático
Outros vídeos desta música
00:00 / 00:00
Automático
OK