Notificações Amigos pendentes

      U2

      With Or Without You

      10.276 reproducciones
      Tono: D
      (intro)
      
      E |--------------------------
      B |--------------------------
      G |-7---7---7----7----7---7--
      D |---7---7---7----7----7---7
      A |--------------------------
      E |--------------------------
      
      
       D      A                 Bm
      See the stone set in your eyes,
               G                   D
      See the thorn twist in your side
        A         Bm   G
      I wait for you
      
       D         A                 Bm
      Sleight of hand and twist of fate
                  G                   D
      On a bed of nails she makes me wait
              A             Bm   G
      And I wait....without you
      
                 D     A
      With or without you
                 Bm    G
      With or without you
      
       D         A                 Bm
      Through the storm we reach the shore
                  G                   D
      You give it all but I want more
              A             Bm   G
      And I'm waiting for you
      
                 D     A               Bm   A
      With or without you, with or without you
               D     A       Bm    G
      I can't live with or without you
      
      ( D A Bm G )
      
               D             A
      And you give yourself away
               Bm            G
      And you give yourself away
               D
      And you give
               A
      And you give
               Bm            G
      And you give yourself away
           D        A
      My hands are tied
          Bm         G               A
      My body bruised, she's got me with
                 Bm
      Nothing to win
                G         D
      And nothing left to lose
      
               D             A
      And you give yourself away
               Bm            G
      And you give yourself away
               D
      And you give
               A
      And you give
               Bm            G
      And you give yourself away
      
                 D     A
      With or without you
                 Bm    G
      With or without you
                D   A
      I can't live
                 Bm   G
      With or without you
      
      (chorus)
      
      E |---10---10-10---10--------------------|
      B |-8----8-------8----7------------------|
      G |---------------------------0-0-0------|
      D |---------------------0-0-0------------|
      A |--------------------------------------|
      E |--------------------------------------|
      
      
                 D     A
      With or without you
                 Bm    G
      With or without you
                D   A
      I can't live
                 Bm   G
      With or without you
      
      (solos at end are formation of D chords)
      
      
      E |-2-0-0-2-3----
      B |-3-3-3-3-3----
      G |-2-2-0-2-2----
      D |--------------
      A |--------------
      E |--------------
      
      
         D                Dadd9/A         D/B             D/G
      E |---------2---------------0---------------2---------------3----------
      B |-----3-------3-------3-------3-------3-------3-------3-------3------
      G |---2---2---2---2---2---2---2---2---2---2---2---2---2---2---2---2----
      D |-0------------------------------------------------------------------
      A |----------------0---------------2-----------------------------------
      E |-------------------------------------------------3------------------
      
      
      E |-----------------------|---------------|----------------|
      B |-----------------------|---------------|----------------|
      G |-----------------------|---------------|----------------|
      D |-----------------------|---------------|----------------|
      A |-----------------------|0-0-0-0-0-0-0-0|2-2-2-2-2-2-2-2-|
      E |10-10-10-10-10-10-10-10|---------------|----------------|
      
      
      E |--------------- ||
      B |--------------- ||
      G |--------------- ||
      D |--------------- ||
      A |--------------- ||
      E |3-3-3-3-3-3-3-3 ||
      
      
      (Adam Clayton)
      
      E |-----------------------|---------------|----------------|
      B |-----------------------|---------------|----------------|
      G |-----------------------|---------------|----------------|
      D |-----------------------|---------------|----------------|
      A |-----------------------|---------------|----------------|
      E |10-10-10-10-10-10-10-10|5-5-5-5-5-5-5-5|7-7-7-7-7-7-7-7-|
      
      
      E |----------------||
      B |----------------||
      G |----------------||
      D |----------------||
      A |----------------||
      E |3-3-3-3-3-3-3-3 ||
      
      
      E |------------------------|-----------------------|
      B |------------------------|-----------------------|
      G |------------------------|-----------------------|
      D |------------------------|-----------------------|
      A |------------------------|12-12-12-12-12-12-12-12|
      E |10-10-10-10-10-10-10-10-|-----------------------|
      
      
      E |------------------------|-----------------------|
      B |------------------------|-----------------------|
      G |------------------------|-----------------------|
      D |------------------------|-----------------------|
      A |14-14-14-14-14-14-14-14-|-----------------------|
      E |------------------------|15-15-15-15-15-15-15-15|
      
        Composición: Adam Clayton / Bono / Larry Mullen, Jr. / The EdgeColaboración y revision:
        • hilmilho

        Comentarios 10

        140 .
        • Mirna Mirna: Em 12/12/2015 12:41

          Podia ter a videoaula do solo..

        • Vyne Vyne: Em 28/08/2015 17:04

          Cover meu dessa música no Youtube galera! heheh
          Por favor vejam e digam o que pensam! Valeu :)
          Em breve covers novos...
          watch?v=EBBJnhKSSmY

        • Nei Nei : Em 24/06/2013 22:01

          Show dos meninos a 4 mãos e do amigo no solo...Parabens !!! Olhando vcs parece mesmo muito facil, mas vai tentar fazer pra ver só...

        • marcosgabriel.771902 marcosgabriel.771902: Em 13/06/2013 16:25

          é facil essa musica véi

        • kirilin kirilin: Em 08/08/2012 15:59

          Patrik voce é muito bom parabens

        • monichancurio monichancurio: Em 10/11/2011 18:14

          Eu quero que ensine o solinho viu Patrick... vc é de +...

        • lucasmendanha04 lucasmendanha04: Em 25/06/2011 12:37

          mto legal vcs tocando no final

        • julianoc julianoc: Em 16/04/2011 22:26

          essa cifra ta uma **** ta tudo errado,, seu eu soubesse as notas certas eu consertaria

          • musicateamo musicateamo: Em 02/06/2012 18:02

            Como vc sabe que esta errado se nem sabe as notas ou melhor os acordes?

        • Corrêa Corrêa: Em 30/01/2011 11:58

          Caramba, aquele making of rebentou, vocês do Cifra Club, sabem fazer a coisa.

        140 cancelar

        ¿conseguiste tocar?

        • •••
        Edemilson Teodoroski913 visualizações
          ver cover de otras canciones »
          0:00 / 0:00
          Esta versão de cifra não é usada na videoaula. Exiba a cifra correta.
          1 versão de contrabajo reproducciones contribuición y correción
          1 versão de batería reproducciones contribuición y correción
          2 versões de armónica reproducciones contribuición y correción
          3 versões de Guitar Proformatodownloadscontribuición
          1 versão de partiturasformatodownloadscontribuición
          play/pausefechar subir/bajar velocidad
          6ª cuerda E5ª cuerda A4ª cuerda D3ª cuerda G2ª cuerda B1ª cuerda E
            acordes
            publicidad
            cerrar
            ok