Cifra Club

Aprenda

25

UB40

Tab de bajo: Principal
Album-Signing off
Tabbed by-Matt Bean
E*


intro,
G|--------------131----------|
D|--1-----1-1--1-------------|
A|-3-3--3-------------1---33-|
E|------------------3---3----|

G|---------------131----------|
D|--131---1111--1-------------|
A|-3----3---------------1---3-|
E|--------------------3---3---|

G|--------------------1-1-3-|
D|--1----1-1-----1---1-1----|
A|-3-3--3-3-3--3---3--------|
E|--------------------------|

G|--------------1--1-3-|
D|--1----1-1--1---1----|
A|-3-3--3-3-3----------|
E|---------------------|

main riff,
G|-----------------1-1---------------------------1-3-1--------|
D|--1-1-----1-11--1-1-1------------1-3-1--1111--1-------------|
A|-3-3-3--3----------------1---3--3------1--------------1---3-|
E|-----------------------3---1------------------------3---3---|


Compositor Ali Campbell / Brian Travers / Earl Falconer / Jim Brown / Michael Virtue / Norman Hassan / Robin Campbell / UB40
53 reproducciones

0 comentarios

Mostrar mais comentários

¿Conseguiste tocar?

0 Tocaron 0 Ainda não

Grave um vídeo tocando 25 e mande pra gente!

00:00 / 00:00
outros vídeos desta música
repetir qualidade Automático
Outros vídeos desta música
00:00 / 00:00
Automático
OK