Cifra Club

Aprenda

Come Back Darling

UB40

Tab de bajo: Principal
Album;Labour of Love III
Tabbed by;matty
E-mail;*


into/chorus x2
G|--7777------------------------|--7777------------------------|
D|-5---------------5------------|-5---------------5------------|
A|------5--3555-----33335--3555-|------5--3555-----33335--3555-|
E|------------------------------|------------------------------|

verse x2
G|-7---7---77---7--775-5-5-5-5-5-5-5-|-7---7--77---7--77----------------|
D|--5-5------5-5---------------------|--5-5-----5-5---------------------|
A|-----------------------------------|------------------5-5-5-5-5-5-5-5-|
E|-----------------------------------|----------------------------------|
Compositor Johnny Osbourne
69 reproducciones

0 comentarios

Mostrar mais comentários

¿Conseguiste tocar?

0 Tocaron 0 Ainda não

Grave um vídeo tocando Come Back Darling e mande pra gente!

00:00 / 00:00
outros vídeos desta música
repetir qualidade Automático
Outros vídeos desta música
00:00 / 00:00
Automático
OK