Cifra Club

Aprenda

Dont Slow Down

UB40

Tab de bajo: Principal
    Album - Present Arms
    Tabbed by - Mat Bean
    E-mail - *


  G|------------------------------------------|
  D|--33-3-------33-53------------------------|
  A|-------55-33--------33-3-------3-3h5-3h5--|
  E|-------------------------55-33------------|


  G|--------------------------------------|
  D|--33-3-------33-53--------------------|
  A|-------55-33--------33-3-------33-53--|
  E|-------------------------55-33--------|


  G|-------------------------------------|
  D|-------------------------------------|
  A|--11-1------11---1-33-3-------33-53--|
  E|-------3333----3--------55-55--------|


  G|------------------------------------------|
  D|------------------------------------------|
  A|--11-1-------11-0-1-2-33-3-------3-33353--|
  E|-------33-11---------------55-33----------|

       repeat thro'out with improv.
Compositor UB40
45 reproducciones

0 comentarios

Mostrar mais comentários

¿Conseguiste tocar?

0 Tocaron 0 Ainda não

Grave um vídeo tocando Dont Slow Down e mande pra gente!

00:00 / 00:00
outros vídeos desta música
repetir qualidade Automático
Outros vídeos desta música
00:00 / 00:00
Automático
OK