Cifra Club

Dream A Lie

UB40

Tab de bajo: Principal
Album-The Best of * file
Tabbed *

 main riff; h=hammer on, p=pull off          

G|---|-----------------------------------------| 
D|---|--6h9p6----------------------------------| 
A|-0-|-7-----77----66-99-----4h7p4-------66-99-| 
E|---|-----------77-----77--5-----55--777------| 

G|----------------------------------------|
D|--6h9p6---------------------------------|
A|-7-----77----66-99----4h7p4-------66-99-|
E|-----------77-----7--5-----55--777------|

 riff 2
G|-------------------------------------|
D|--6666-------------------------------|
A|-7----77-----66-99---4444-------66-9-|
E|----------777-------5----55--777-----|

G|----------------------------------|
D|--6666----------------------------|
A|-7----77-----6-9---4444-------6-9-|
E|----------777-----5----55--777----|

 repeat riffs thro'out,alternating between both





reproducciones 32

0 comentarios

mostrar más comentarios

¿Conseguiste tocar?

0 tocaron 0 aún no

¡Graba un vídeo tocando Dream A Lie y envianoslo!

00:00 / 00:00
outros vídeos desta música
repetir qualidade Automático
Outros vídeos desta música
00:00 / 00:00
Automático
OK