Cifra Club

Aprenda

Food For Thought

UB40

Tab de bajo: Principal
Album-Signing off
Tabbed by-Matt Bean
E*

Bass comes in after first bar of sax intro.

main riff, repeat thro out with variations.

G|---------------------------------|
D|--7-----------5--------9-7-------|
A|----7777--5h7------9999----9-7-7-|
E|----------------7-7--------------|

G|---------------------------------|
D|-------------------------5-3-3---|
A|-----7777----7-------5555-----3--|
E|--5-5----5-5---5--3-3----------3-|
Compositor Ali Campbell / Brian Travers / Falconer / Hassan / Michael Virtue / Robin Campbell / Terence Wilson
100 reproducciones

0 comentarios

Mostrar mais comentários

¿Conseguiste tocar?

0 Tocaron 0 Ainda não

Grave um vídeo tocando Food For Thought e mande pra gente!

00:00 / 00:00
outros vídeos desta música
repetir qualidade Automático
Outros vídeos desta música
00:00 / 00:00
Automático
OK