Cifra Club

Forget The Cost

UB40

Tab de bajo: Principal
Album-UB44
Tabbed by-Matt Bean
E*


G|-------------------------------|
D|-------------------------------|
A|------3-5---5(5)---------1-0---|
E|--3-3-----3------1-11-11-----3-|


G|-------------------------------|
D|-------------------------------|
A|------3-5---5(5)---------1-0---|
E|--3-3-----3------1-11-11-----3-|
Composición de UB40
24 vistas

0 comentarios

Ver todos los comentarios

¿Lograste tocar?

0 Tocaron 0 Aún no

¡Graba un video tocando Forget The Cost y envíanoslo!

00:00 / 00:00
Outros vídeos desta música
Repetir Calidad Automático
Outros vídeos desta música
00:00 / 00:00
Automático
OK